  0
SECTION
  2
HEADER
  9
$ACADVER
  1
AC1015
  9
$ACADMAINTVER
 70
    20
  9
$DWGCODEPAGE
  3
ANSI_1254
  9
$INSBASE
 10
0.0
 20
0.0
 30
0.0
  9
$EXTMIN
 10
1601.166011385983
 20
1119.185267173407
 30
0.0
  9
$EXTMAX
 10
2103.704816543825
 20
1339.969746628262
 30
0.0
  9
$LIMMIN
 10
0.0
 20
0.0
  9
$LIMMAX
 10
420.0
 20
297.0
  9
$ORTHOMODE
 70
     1
  9
$REGENMODE
 70
     1
  9
$FILLMODE
 70
     1
  9
$QTEXTMODE
 70
     0
  9
$MIRRTEXT
 70
     0
  9
$LTSCALE
 40
1.0
  9
$ATTMODE
 70
     1
  9
$TEXTSIZE
 40
2.5
  9
$TRACEWID
 40
1.0
  9
$TEXTSTYLE
  7
Standard
  9
$CLAYER
  8
0
  9
$CELTYPE
  6
ByLayer
  9
$CECOLOR
 62
   256
  9
$CELTSCALE
 40
1.0
  9
$DISPSILH
 70
     0
  9
$DIMSCALE
 40
1.0
  9
$DIMASZ
 40
2.5
  9
$DIMEXO
 40
0.625
  9
$DIMDLI
 40
3.75
  9
$DIMRND
 40
0.0
  9
$DIMDLE
 40
0.0
  9
$DIMEXE
 40
1.25
  9
$DIMTP
 40
0.0
  9
$DIMTM
 40
0.0
  9
$DIMTXT
 40
2.5
  9
$DIMCEN
 40
2.5
  9
$DIMTSZ
 40
0.0
  9
$DIMTOL
 70
     0
  9
$DIMLIM
 70
     0
  9
$DIMTIH
 70
     0
  9
$DIMTOH
 70
     0
  9
$DIMSE1
 70
     0
  9
$DIMSE2
 70
     0
  9
$DIMTAD
 70
     1
  9
$DIMZIN
 70
     8
  9
$DIMBLK
  1

  9
$DIMASO
 70
     1
  9
$DIMSHO
 70
     1
  9
$DIMPOST
  1

  9
$DIMAPOST
  1

  9
$DIMALT
 70
     0
  9
$DIMALTD
 70
     3
  9
$DIMALTF
 40
0.03937007874016
  9
$DIMLFAC
 40
1.0
  9
$DIMTOFL
 70
     1
  9
$DIMTVP
 40
0.0
  9
$DIMTIX
 70
     0
  9
$DIMSOXD
 70
     0
  9
$DIMSAH
 70
     0
  9
$DIMBLK1
  1

  9
$DIMBLK2
  1

  9
$DIMSTYLE
  2
ISO-25
  9
$DIMCLRD
 70
     0
  9
$DIMCLRE
 70
     0
  9
$DIMCLRT
 70
     0
  9
$DIMTFAC
 40
1.0
  9
$DIMGAP
 40
0.625
  9
$DIMJUST
 70
     0
  9
$DIMSD1
 70
     0
  9
$DIMSD2
 70
     0
  9
$DIMTOLJ
 70
     0
  9
$DIMTZIN
 70
     8
  9
$DIMALTZ
 70
     0
  9
$DIMALTTZ
 70
     0
  9
$DIMUPT
 70
     0
  9
$DIMDEC
 70
     2
  9
$DIMTDEC
 70
     2
  9
$DIMALTU
 70
     2
  9
$DIMALTTD
 70
     3
  9
$DIMTXSTY
  7
Standard
  9
$DIMAUNIT
 70
     0
  9
$DIMADEC
 70
     0
  9
$DIMALTRND
 40
0.0
  9
$DIMAZIN
 70
     0
  9
$DIMDSEP
 70
    44
  9
$DIMATFIT
 70
     3
  9
$DIMFRAC
 70
     0
  9
$DIMLDRBLK
  1

  9
$DIMLUNIT
 70
     2
  9
$DIMLWD
 70
    -2
  9
$DIMLWE
 70
    -2
  9
$DIMTMOVE
 70
     0
  9
$LUNITS
 70
     2
  9
$LUPREC
 70
     4
  9
$SKETCHINC
 40
1.0
  9
$FILLETRAD
 40
0.0
  9
$AUNITS
 70
     0
  9
$AUPREC
 70
     0
  9
$MENU
  1
.
  9
$ELEVATION
 40
0.0
  9
$PELEVATION
 40
0.0
  9
$THICKNESS
 40
0.0
  9
$LIMCHECK
 70
     0
  9
$CHAMFERA
 40
0.0
  9
$CHAMFERB
 40
0.0
  9
$CHAMFERC
 40
0.0
  9
$CHAMFERD
 40
0.0
  9
$SKPOLY
 70
     0
  9
$TDCREATE
 40
2458472.619737176
  9
$TDUCREATE
 40
2458472.494737176
  9
$TDUPDATE
 40
2458983.646772570
  9
$TDUUPDATE
 40
2458983.521772569
  9
$TDINDWG
 40
0.0038412384
  9
$TDUSRTIMER
 40
0.0038412384
  9
$USRTIMER
 70
     1
  9
$ANGBASE
 50
0.0
  9
$ANGDIR
 70
     0
  9
$PDMODE
 70
     0
  9
$PDSIZE
 40
0.0
  9
$PLINEWID
 40
0.0
  9
$SPLFRAME
 70
     0
  9
$SPLINETYPE
 70
     6
  9
$SPLINESEGS
 70
     8
  9
$HANDSEED
  5
CEB
  9
$SURFTAB1
 70
     6
  9
$SURFTAB2
 70
     6
  9
$SURFTYPE
 70
     6
  9
$SURFU
 70
     6
  9
$SURFV
 70
     6
  9
$UCSBASE
  2

  9
$UCSNAME
  2

  9
$UCSORG
 10
0.0
 20
0.0
 30
0.0
  9
$UCSXDIR
 10
1.0
 20
0.0
 30
0.0
  9
$UCSYDIR
 10
0.0
 20
1.0
 30
0.0
  9
$UCSORTHOREF
  2

  9
$UCSORTHOVIEW
 70
     0
  9
$UCSORGTOP
 10
0.0
 20
0.0
 30
0.0
  9
$UCSORGBOTTOM
 10
0.0
 20
0.0
 30
0.0
  9
$UCSORGLEFT
 10
0.0
 20
0.0
 30
0.0
  9
$UCSORGRIGHT
 10
0.0
 20
0.0
 30
0.0
  9
$UCSORGFRONT
 10
0.0
 20
0.0
 30
0.0
  9
$UCSORGBACK
 10
0.0
 20
0.0
 30
0.0
  9
$PUCSBASE
  2

  9
$PUCSNAME
  2

  9
$PUCSORG
 10
0.0
 20
0.0
 30
0.0
  9
$PUCSXDIR
 10
1.0
 20
0.0
 30
0.0
  9
$PUCSYDIR
 10
0.0
 20
1.0
 30
0.0
  9
$PUCSORTHOREF
  2

  9
$PUCSORTHOVIEW
 70
     0
  9
$PUCSORGTOP
 10
0.0
 20
0.0
 30
0.0
  9
$PUCSORGBOTTOM
 10
0.0
 20
0.0
 30
0.0
  9
$PUCSORGLEFT
 10
0.0
 20
0.0
 30
0.0
  9
$PUCSORGRIGHT
 10
0.0
 20
0.0
 30
0.0
  9
$PUCSORGFRONT
 10
0.0
 20
0.0
 30
0.0
  9
$PUCSORGBACK
 10
0.0
 20
0.0
 30
0.0
  9
$USERI1
 70
     0
  9
$USERI2
 70
     0
  9
$USERI3
 70
     0
  9
$USERI4
 70
     0
  9
$USERI5
 70
     0
  9
$USERR1
 40
0.0
  9
$USERR2
 40
0.0
  9
$USERR3
 40
0.0
  9
$USERR4
 40
0.0
  9
$USERR5
 40
0.0
  9
$WORLDVIEW
 70
     1
  9
$SHADEDGE
 70
     3
  9
$SHADEDIF
 70
    70
  9
$TILEMODE
 70
     1
  9
$MAXACTVP
 70
    64
  9
$PINSBASE
 10
0.0
 20
0.0
 30
0.0
  9
$PLIMCHECK
 70
     0
  9
$PEXTMIN
 10
0.0
 20
0.0
 30
0.0
  9
$PEXTMAX
 10
0.0
 20
0.0
 30
0.0
  9
$PLIMMIN
 10
0.0
 20
0.0
  9
$PLIMMAX
 10
12.0
 20
9.0
  9
$UNITMODE
 70
     0
  9
$VISRETAIN
 70
     1
  9
$PLINEGEN
 70
     0
  9
$PSLTSCALE
 70
     1
  9
$TREEDEPTH
 70
  3020
  9
$CMLSTYLE
  2
Standard
  9
$CMLJUST
 70
     0
  9
$CMLSCALE
 40
20.0
  9
$PROXYGRAPHICS
 70
     1
  9
$MEASUREMENT
 70
     1
  9
$CELWEIGHT
370
    -1
  9
$ENDCAPS
280
     0
  9
$JOINSTYLE
280
     0
  9
$LWDISPLAY
290
     0
  9
$INSUNITS
 70
     4
  9
$HYPERLINKBASE
  1

  9
$STYLESHEET
  1

  9
$XEDIT
290
     1
  9
$CEPSNTYPE
380
     0
  9
$PSTYLEMODE
290
     1
  9
$FINGERPRINTGUID
  2
{65E8385D-3F34-4C14-8155-7EE147341ACA}
  9
$VERSIONGUID
  2
{4E3047D9-B12B-430C-807D-B7540718CE53}
  9
$EXTNAMES
290
     1
  9
$PSVPSCALE
 40
0.0
  9
$OLESTARTUP
290
     0
  0
ENDSEC
  0
SECTION
  2
CLASSES
  0
CLASS
  1
ACDBDICTIONARYWDFLT
  2
AcDbDictionaryWithDefault
  3
ObjectDBX Classes
 90
        0
280
     0
281
     0
  0
CLASS
  1
ACDBPLACEHOLDER
  2
AcDbPlaceHolder
  3
ObjectDBX Classes
 90
        0
280
     0
281
     0
  0
CLASS
  1
LAYOUT
  2
AcDbLayout
  3
ObjectDBX Classes
 90
        0
280
     0
281
     0
  0
CLASS
  1
DICTIONARYVAR
  2
AcDbDictionaryVar
  3
ObjectDBX Classes
 90
        0
280
     0
281
     0
  0
CLASS
  1
TABLESTYLE
  2
AcDbTableStyle
  3
ObjectDBX Classes
 90
     4095
280
     0
281
     0
  0
CLASS
  1
MATERIAL
  2
AcDbMaterial
  3
ObjectDBX Classes
 90
     1153
280
     0
281
     0
  0
CLASS
  1
VISUALSTYLE
  2
AcDbVisualStyle
  3
ObjectDBX Classes
 90
     4095
280
     0
281
     0
  0
CLASS
  1
SCALE
  2
AcDbScale
  3
ObjectDBX Classes
 90
     1153
280
     0
281
     0
  0
CLASS
  1
MLEADERSTYLE
  2
AcDbMLeaderStyle
  3
ACDB_MLEADERSTYLE_CLASS
 90
     4095
280
     0
281
     0
  0
CLASS
  1
CELLSTYLEMAP
  2
AcDbCellStyleMap
  3
ObjectDBX Classes
 90
     1152
280
     0
281
     0
  0
CLASS
  1
DIMASSOC
  2
AcDbDimAssoc
  3
"AcDbDimAssoc|Product Desc:     AcDim ARX App For Dimension|Company:          Autodesk, Inc.|WEB Address:      www.autodesk.com"
 90
    32768
280
     0
281
     0
  0
CLASS
  1
ACAD_EVALUATION_GRAPH
  2
AcDbEvalGraph
  3
ObjectDBX Classes
 90
    33921
280
     0
281
     0
  0
CLASS
  1
ACAECUSTOBJ
  2
AcAeEditorObj
  3
AcAeEditorObj
 90
    33792
280
     0
281
     0
  0
CLASS
  1
ACDB_DYNAMICBLOCKPURGEPREVENTER_VERSION
  2
AcDbDynamicBlockPurgePreventer
  3
ObjectDBX Classes
 90
    33921
280
     0
281
     0
  0
ENDSEC
  0
SECTION
  2
TABLES
  0
TABLE
  2
VPORT
  5
8
330
0
100
AcDbSymbolTable
 70
     1
  0
VPORT
  5
EA
330
8
100
AcDbSymbolTableRecord
100
AcDbViewportTableRecord
  2
*Active
 70
     0
 10
0.0
 20
0.0
 11
1.0
 21
1.0
 12
1908.329908272687
 22
1256.39795864482
 13
0.0
 23
0.0
 14
10.0
 24
10.0
 15
10.0
 25
10.0
 16
0.0
 26
0.0
 36
1.0
 17
0.0
 27
0.0
 37
0.0
 40
401.8490980954184
 41
1.903110047846889
 42
50.0
 43
0.0
 44
0.0
 50
0.0
 51
0.0
 71
     0
 72
  1000
 73
     1
 74
     3
 75
     0
 76
     0
 77
     0
 78
     0
281
     0
 65
     1
110
0.0
120
0.0
130
0.0
111
1.0
121
0.0
131
0.0
112
0.0
122
1.0
132
0.0
 79
     0
146
0.0
  0
ENDTAB
  0
TABLE
  2
LTYPE
  5
5
330
0
100
AcDbSymbolTable
 70
     1
  0
LTYPE
  5
14
330
5
100
AcDbSymbolTableRecord
100
AcDbLinetypeTableRecord
  2
ByBlock
 70
     0
  3

 72
    65
 73
     0
 40
0.0
  0
LTYPE
  5
15
330
5
100
AcDbSymbolTableRecord
100
AcDbLinetypeTableRecord
  2
ByLayer
 70
     0
  3

 72
    65
 73
     0
 40
0.0
  0
LTYPE
  5
16
330
5
100
AcDbSymbolTableRecord
100
AcDbLinetypeTableRecord
  2
Continuous
 70
     0
  3
Solid line
 72
    65
 73
     0
 40
0.0
  0
ENDTAB
  0
TABLE
  2
LAYER
  5
2
330
0
100
AcDbSymbolTable
 70
     2
  0
LAYER
  5
10
102
{ACAD_XDICTIONARY
360
13C
102
}
330
2
100
AcDbSymbolTableRecord
100
AcDbLayerTableRecord
  2
0
 70
     0
 62
     7
  6
Continuous
370
    -3
390
F
  0
LAYER
  5
9EF
330
2
100
AcDbSymbolTableRecord
100
AcDbLayerTableRecord
  2
Defpoints
 70
     0
 62
     7
  6
Continuous
290
     0
370
    -3
390
F
  0
ENDTAB
  0
TABLE
  2
STYLE
  5
3
330
0
100
AcDbSymbolTable
 70
     2
  0
STYLE
  5
11
330
3
100
AcDbSymbolTableRecord
100
AcDbTextStyleTableRecord
  2
Standard
 70
     0
 40
0.0
 41
1.0
 50
0.0
 71
     0
 42
2.5
  3
txt
  4

  0
STYLE
  5
132
330
3
100
AcDbSymbolTableRecord
100
AcDbTextStyleTableRecord
  2
Annotative
 70
     0
 40
0.0
 41
1.0
 50
0.0
 71
     0
 42
2.5
  3
txt.shx
  4

1001
AcadAnnotative
1000
AnnotativeData
1002
{
1070
     1
1070
     1
1002
}
  0
ENDTAB
  0
TABLE
  2
VIEW
  5
6
330
0
100
AcDbSymbolTable
 70
     0
  0
ENDTAB
  0
TABLE
  2
UCS
  5
7
330
0
100
AcDbSymbolTable
 70
     0
  0
ENDTAB
  0
TABLE
  2
APPID
  5
9
330
0
100
AcDbSymbolTable
 70
    12
  0
APPID
  5
12
330
9
100
AcDbSymbolTableRecord
100
AcDbRegAppTableRecord
  2
ACAD
 70
     0
  0
APPID
  5
9E
330
9
100
AcDbSymbolTableRecord
100
AcDbRegAppTableRecord
  2
ACAD_PSEXT
 70
     0
  0
APPID
  5
133
330
9
100
AcDbSymbolTableRecord
100
AcDbRegAppTableRecord
  2
AcadAnnoPO
 70
     0
  0
APPID
  5
134
330
9
100
AcDbSymbolTableRecord
100
AcDbRegAppTableRecord
  2
AcadAnnotative
 70
     0
  0
APPID
  5
135
330
9
100
AcDbSymbolTableRecord
100
AcDbRegAppTableRecord
  2
ACAD_DSTYLE_DIMJAG
 70
     0
  0
APPID
  5
136
330
9
100
AcDbSymbolTableRecord
100
AcDbRegAppTableRecord
  2
ACAD_DSTYLE_DIMTALN
 70
     0
  0
APPID
  5
165
330
9
100
AcDbSymbolTableRecord
100
AcDbRegAppTableRecord
  2
ACAD_MLEADERVER
 70
     0
  0
APPID
  5
AAF
330
9
100
AcDbSymbolTableRecord
100
AcDbRegAppTableRecord
  2
ACAUTHENVIRON
 70
     0
  0
APPID
  5
AB3
330
9
100
AcDbSymbolTableRecord
100
AcDbRegAppTableRecord
  2
AcDbDynamicBlockTrueName
 70
     0
  0
APPID
  5
AB4
330
9
100
AcDbSymbolTableRecord
100
AcDbRegAppTableRecord
  2
AcDbDynamicBlockGUID
 70
     0
  0
APPID
  5
AB6
330
9
100
AcDbSymbolTableRecord
100
AcDbRegAppTableRecord
  2
AcDbBlockRepETag
 70
     0
  0
APPID
  5
C5D
330
9
100
AcDbSymbolTableRecord
100
AcDbRegAppTableRecord
  2
ACAD_EXEMPT_FROM_CAD_STANDARDS
 70
     0
  0
ENDTAB
  0
TABLE
  2
DIMSTYLE
  5
A
330
0
100
AcDbSymbolTable
 70
     2
100
AcDbDimStyleTable
 71
     2
340
27
340
137
  0
DIMSTYLE
105
27
330
A
100
AcDbSymbolTableRecord
100
AcDbDimStyleTableRecord
  2
ISO-25
 70
     0
 41
2.5
 42
0.625
 43
3.75
 44
1.25
 73
     0
 74
     0
 77
     1
 78
     8
140
2.5
141
2.5
143
0.03937007874016
147
0.625
171
     3
172
     1
271
     2
272
     2
274
     3
278
    44
283
     0
284
     8
340
11
  0
DIMSTYLE
105
137
330
A
100
AcDbSymbolTableRecord
100
AcDbDimStyleTableRecord
  2
Annotative
 70
     0
 40
0.0
 41
2.5
 42
0.625
 43
3.75
 44
1.25
 73
     0
 74
     0
 77
     1
 78
     8
140
2.5
141
2.5
143
0.03937007874016
147
0.625
171
     3
172
     1
271
     2
272
     2
274
     3
278
    44
283
     0
284
     8
340
11
1001
AcadAnnotative
1000
AnnotativeData
1002
{
1070
     1
1070
     1
1002
}
1001
ACAD_DSTYLE_DIMJAG
1070
   388
1040
1.5
1001
ACAD_DSTYLE_DIMTALN
1070
   392
1070
     0
  0
ENDTAB
  0
TABLE
  2
BLOCK_RECORD
  5
1
330
0
100
AcDbSymbolTable
 70
     9
  0
BLOCK_RECORD
  5
1F
330
1
100
AcDbSymbolTableRecord
100
AcDbBlockTableRecord
  2
*Model_Space
340
22
  0
BLOCK_RECORD
  5
D2
330
1
100
AcDbSymbolTableRecord
100
AcDbBlockTableRecord
  2
*Paper_Space
340
D3
  0
BLOCK_RECORD
  5
D6
330
1
100
AcDbSymbolTableRecord
100
AcDbBlockTableRecord
  2
*Paper_Space0
340
D7
  0
BLOCK_RECORD
  5
723
102
{ACAD_XDICTIONARY
360
C59
102
}
330
1
100
AcDbSymbolTableRecord
100
AcDbBlockTableRecord
  2
1
340
0
310
2800000020000000200000000100080000000000000400000000000000000000000000000000000000000000000080000080000000808000800000008000800080800000C0C0C000C0DCC000F0CAA6000020400000206000002080000020A0000020C0000020E00000400000004020000040400000406000004080000040A0
310
000040C0000040E00000600000006020000060400000606000006080000060A0000060C0000060E00000800000008020000080400000806000008080000080A0000080C0000080E00000A0000000A0200000A0400000A0600000A0800000A0A00000A0C00000A0E00000C0000000C0200000C0400000C0600000C0800000C0
310
A00000C0C00000C0E00000E0000000E0200000E0400000E0600000E0800000E0A00000E0C00000E0E00040000000400020004000400040006000400080004000A0004000C0004000E00040200000402020004020400040206000402080004020A0004020C0004020E000404000004040200040404000404060004040800040
310
40A0004040C0004040E00040600000406020004060400040606000406080004060A0004060C0004060E00040800000408020004080400040806000408080004080A0004080C0004080E00040A0000040A0200040A0400040A0600040A0800040A0A00040A0C00040A0E00040C0000040C0200040C0400040C0600040C08000
310
40C0A00040C0C00040C0E00040E0000040E0200040E0400040E0600040E0800040E0A00040E0C00040E0E00080000000800020008000400080006000800080008000A0008000C0008000E00080200000802020008020400080206000802080008020A0008020C0008020E00080400000804020008040400080406000804080
310
008040A0008040C0008040E00080600000806020008060400080606000806080008060A0008060C0008060E00080800000808020008080400080806000808080008080A0008080C0008080E00080A0000080A0200080A0400080A0600080A0800080A0A00080A0C00080A0E00080C0000080C0200080C0400080C0600080C0
310
800080C0A00080C0C00080C0E00080E0000080E0200080E0400080E0600080E0800080E0A00080E0C00080E0E000C0000000C0002000C0004000C0006000C0008000C000A000C000C000C000E000C0200000C0202000C0204000C0206000C0208000C020A000C020C000C020E000C0400000C0402000C0404000C0406000C0
310
408000C040A000C040C000C040E000C0600000C0602000C0604000C0606000C0608000C060A000C060C000C060E000C0800000C0802000C0804000C0806000C0808000C080A000C080C000C080E000C0A00000C0A02000C0A04000C0A06000C0A08000C0A0A000C0A0C000C0A0E000C0C00000C0C02000C0C04000C0C06000
310
C0C08000C0C0A000F0FBFF00A4A0A000808080000000FF0000FF000000FFFF00FF000000FF00FF00FFFF0000FFFFFF0000000000000000000000000000000000000000000000000000000000000000000000000000000000000000000000000000000000000000000000000000000000000000000000000000000000000000
310
00000000000000000000000000000000000000000000000000000000000000000000000000000000000000000000000000000000000000000000000000000000000000000000000000000000000000000000000000000000000000000000000000000000000000000000000000000000000000000000000000000000000000
310
000000000000000000000000FFFF000000000000000000000000000000FFFFFFFFFFFFFFFFFFFFFFFFFFFFFFFFFFFFFFFF00000000FFFFFF0000000000FF00FFFFFF000000000000000000FFFFFFFFFFFF0000FFFFFFFFFFFFFFFFFFFFFF00FF00FF000000000000000000FFFFFF0000000000FF0000000000000000FFFFFF
310
FFFFFF000000000000000000FF00000000000000FF000000000000000000000000000000000000FFFFFF0000FF00000000000000FF000000000000000000000000000000000000FF00FFFFFFFF00000000000000FF000000000000000000000000000000000000FF000000000000000000000000FF00000000000000000000
310
0000000000000000FF000000000000000000000000FF000000000000000000000000FFFFFFFFFFFFFF000000000000000000000000FF000000000000000000000000FF00FFFFFF0000000000000000000000000000FF000000000000000000000000FF000000000000000000000000000000000000FF000000000000000000
310
000000FF000000000000000000000000000000000000FF00000000000000FFFFFFFFFFFF000000000000000000000000000000000000FF00000000000000FF0000FF0000000000000000000000000000000000000000FF00000000000000FF0000000000000000000000000000000000000000000000FF00FFFFFF000000FF
310
0000000000000000000000000000000000000000000000FF00FF00FFFFFFFFFF0000000000000000000000000000000000000000000000FFFFFF0000000000000000000000000000000000000000000000000000000000FFFFFF00000000000000000000000000000000000000000000000000000000000000000000000000
310
00000000000000000000000000000000000000000000000000000000000000000000000000000000000000000000000000000000000000000000000000000000000000000000000000000000000000000000000000000000000000000000000000000000000000000000000000000000000000000000000000000000000000
310
0000000000000000000000000000000000000000000000000000000000000000000000000000000000000000000000000000000000000000
102
{BLKREFS
331
7B5
102
}
1001
AcDbDynamicBlockGUID
1000
{B367D6D8-7842-4635-8FF7-E89170063F7A}
1001
AcDbBlockRepETag
1070
     1
1071
      143
1001
ACAD
1000
DesignCenter Data
1002
{
1070
     1
1070
     4
1002
}
  0
BLOCK_RECORD
  5
7B6
102
{ACAD_XDICTIONARY
360
B7B
102
}
330
1
100
AcDbSymbolTableRecord
100
AcDbBlockTableRecord
  2
2
340
0
310
2800000020000000200000000100080000000000000400000000000000000000000000000000000000000000000080000080000000808000800000008000800080800000C0C0C000C0DCC000F0CAA6000020400000206000002080000020A0000020C0000020E00000400000004020000040400000406000004080000040A0
310
000040C0000040E00000600000006020000060400000606000006080000060A0000060C0000060E00000800000008020000080400000806000008080000080A0000080C0000080E00000A0000000A0200000A0400000A0600000A0800000A0A00000A0C00000A0E00000C0000000C0200000C0400000C0600000C0800000C0
310
A00000C0C00000C0E00000E0000000E0200000E0400000E0600000E0800000E0A00000E0C00000E0E00040000000400020004000400040006000400080004000A0004000C0004000E00040200000402020004020400040206000402080004020A0004020C0004020E000404000004040200040404000404060004040800040
310
40A0004040C0004040E00040600000406020004060400040606000406080004060A0004060C0004060E00040800000408020004080400040806000408080004080A0004080C0004080E00040A0000040A0200040A0400040A0600040A0800040A0A00040A0C00040A0E00040C0000040C0200040C0400040C0600040C08000
310
40C0A00040C0C00040C0E00040E0000040E0200040E0400040E0600040E0800040E0A00040E0C00040E0E00080000000800020008000400080006000800080008000A0008000C0008000E00080200000802020008020400080206000802080008020A0008020C0008020E00080400000804020008040400080406000804080
310
008040A0008040C0008040E00080600000806020008060400080606000806080008060A0008060C0008060E00080800000808020008080400080806000808080008080A0008080C0008080E00080A0000080A0200080A0400080A0600080A0800080A0A00080A0C00080A0E00080C0000080C0200080C0400080C0600080C0
310
800080C0A00080C0C00080C0E00080E0000080E0200080E0400080E0600080E0800080E0A00080E0C00080E0E000C0000000C0002000C0004000C0006000C0008000C000A000C000C000C000E000C0200000C0202000C0204000C0206000C0208000C020A000C020C000C020E000C0400000C0402000C0404000C0406000C0
310
408000C040A000C040C000C040E000C0600000C0602000C0604000C0606000C0608000C060A000C060C000C060E000C0800000C0802000C0804000C0806000C0808000C080A000C080C000C080E000C0A00000C0A02000C0A04000C0A06000C0A08000C0A0A000C0A0C000C0A0E000C0C00000C0C02000C0C04000C0C06000
310
C0C08000C0C0A000F0FBFF00A4A0A000808080000000FF0000FF000000FFFF00FF000000FF00FF00FFFF0000FFFFFF0000000000000000000000000000000000000000000000000000000000000000000000000000000000000000000000000000000000000000000000000000000000000000000000000000000000000000
310
00000000000000000000000000000000000000000000000000000000000000000000000000000000000000000000000000000000000000000000000000000000000000000000000000000000000000000000000000000000000000000000000000000000000000000000000000000000000000000000000000000000000000
310
00000000000000000000000000000000000000000000000000000000000000000000000000000000000000000000000000000000000000000000000000000000000000000000000000000000000000000000000000000000000000000000000000000000000000000000000000000000000000000000000000000000000000
310
000000000000000000000000000000000000000000000000000000000000000000000000000000000000000000000000000000000000000000000000000000000000FFFFFFFF00000000000000000000000000000000000000000000000000000000FFFFFFFF0000000000000000000000000000FFFFFFFFFFFFFFFFFFFFFF
310
FFFFFFFFFFFFFFFFFFFFFFFFFFFFFFFFFFFFFF0000FF00FF00FFFFFF00FF00FFFF00FF00FFFFFF00FF00FFFF00FFFFFF00FFFF0000FF00FF00FFFFFF00FF00FFFF00FF00FFFFFF00FF00FFFF00FFFFFFFFFFFF0000FFFFFFFFFFFFFFFFFFFFFFFFFFFFFFFFFFFFFFFFFFFFFFFFFFFFFFFFFFFF000000000000000000000000
310
00000000FFFFFFFF00000000000000000000000000000000000000000000000000000000FFFFFFFF000000000000000000000000000000000000000000000000000000000000000000000000000000000000000000000000000000000000000000000000000000000000000000000000000000000000000000000000000000
310
00000000000000000000000000000000000000000000000000000000000000000000000000000000000000000000000000000000000000000000000000000000000000000000000000000000000000000000000000000000000000000000000000000000000000000000000000000000000000000000000000000000000000
310
00000000000000000000000000000000000000000000000000000000000000000000000000000000000000000000000000000000000000000000000000000000000000000000000000000000000000000000000000000000000000000000000000000000000000000000000000000000000000000000000000000000000000
310
0000000000000000000000000000000000000000000000000000000000000000000000000000000000000000000000000000000000000000
102
{BLKREFS
331
868
102
}
1001
AcDbDynamicBlockGUID
1000
{F117F51C-1449-4D09-9EF1-80FB05FAABF7}
1001
AcDbBlockRepETag
1070
     1
1071
      175
1001
ACAD
1000
DesignCenter Data
1002
{
1070
     1
1070
     4
1002
}
  0
BLOCK_RECORD
  5
869
102
{ACAD_XDICTIONARY
360
AB0
102
}
330
1
100
AcDbSymbolTableRecord
100
AcDbBlockTableRecord
  2
3
340
0
310
2800000020000000200000000100080000000000000400000000000000000000000000000000000000000000000080000080000000808000800000008000800080800000C0C0C000C0DCC000F0CAA6000020400000206000002080000020A0000020C0000020E00000400000004020000040400000406000004080000040A0
310
000040C0000040E00000600000006020000060400000606000006080000060A0000060C0000060E00000800000008020000080400000806000008080000080A0000080C0000080E00000A0000000A0200000A0400000A0600000A0800000A0A00000A0C00000A0E00000C0000000C0200000C0400000C0600000C0800000C0
310
A00000C0C00000C0E00000E0000000E0200000E0400000E0600000E0800000E0A00000E0C00000E0E00040000000400020004000400040006000400080004000A0004000C0004000E00040200000402020004020400040206000402080004020A0004020C0004020E000404000004040200040404000404060004040800040
310
40A0004040C0004040E00040600000406020004060400040606000406080004060A0004060C0004060E00040800000408020004080400040806000408080004080A0004080C0004080E00040A0000040A0200040A0400040A0600040A0800040A0A00040A0C00040A0E00040C0000040C0200040C0400040C0600040C08000
310
40C0A00040C0C00040C0E00040E0000040E0200040E0400040E0600040E0800040E0A00040E0C00040E0E00080000000800020008000400080006000800080008000A0008000C0008000E00080200000802020008020400080206000802080008020A0008020C0008020E00080400000804020008040400080406000804080
310
008040A0008040C0008040E00080600000806020008060400080606000806080008060A0008060C0008060E00080800000808020008080400080806000808080008080A0008080C0008080E00080A0000080A0200080A0400080A0600080A0800080A0A00080A0C00080A0E00080C0000080C0200080C0400080C0600080C0
310
800080C0A00080C0C00080C0E00080E0000080E0200080E0400080E0600080E0800080E0A00080E0C00080E0E000C0000000C0002000C0004000C0006000C0008000C000A000C000C000C000E000C0200000C0202000C0204000C0206000C0208000C020A000C020C000C020E000C0400000C0402000C0404000C0406000C0
310
408000C040A000C040C000C040E000C0600000C0602000C0604000C0606000C0608000C060A000C060C000C060E000C0800000C0802000C0804000C0806000C0808000C080A000C080C000C080E000C0A00000C0A02000C0A04000C0A06000C0A08000C0A0A000C0A0C000C0A0E000C0C00000C0C02000C0C04000C0C06000
310
C0C08000C0C0A000F0FBFF00A4A0A000808080000000FF0000FF000000FFFF00FF000000FF00FF00FFFF0000FFFFFF000000000000000000000000000000000000000000000000000000000000000000000000000000000000000000000000FFFF00000000000000000000000000000000000000000000000000FFFFFFFFFF
310
FFFFFFFFFFFFFF0000000000000000000000000000000000000000FFFFFFFFFFFFFFFFFFFFFFFF0000000000000000000000000000000000000000000000FF00000000FF0000000000000000000000000000000000000000000000000000FFFFFFFFFFFF0000000000000000000000000000000000000000000000000000FF
310
00FFFF00FF0000000000000000000000000000000000000000000000000000FF00000000FF0000000000000000000000000000000000000000000000000000FF00000000FF0000000000000000000000000000000000000000000000000000FF00000000FF0000000000000000000000000000000000000000000000000000
310
FFFFFFFFFFFF0000000000000000000000000000000000000000000000000000FF00000000FF0000000000000000000000000000000000000000000000000000FF00000000FF0000000000000000000000000000000000000000000000000000FF00000000FF00000000000000000000000000000000000000000000000000
310
00FF00000000FF0000000000000000000000000000000000000000000000000000FFFFFFFFFFFF0000000000000000000000000000000000000000000000000000FF00FFFF00FF0000000000000000000000000000000000000000000000000000FF00000000FF000000000000000000000000000000000000000000000000
310
0000FF00000000FF0000000000000000000000000000000000000000000000000000FF00000000FF0000000000000000000000000000000000000000000000000000FF00000000FF0000000000000000000000000000000000000000000000000000FFFFFFFFFFFF0000000000000000000000000000000000000000000000
310
000000FF00FFFF00FF0000000000000000000000000000000000000000000000000000FF00000000FF0000000000000000000000000000000000000000000000000000FF00000000FF0000000000000000000000000000000000000000000000000000FF00000000FF00000000000000000000000000000000000000000000
310
00000000FFFFFFFFFFFF0000000000000000000000000000000000000000000000000000FF00FFFF00FF0000000000000000000000000000000000000000000000000000FFFFFFFFFFFF0000000000000000000000000000000000000000000000000000FFFFFFFFFFFF000000000000000000000000000000000000000000
310
0000000000FFFFFFFFFFFF000000000000000000000000000000000000000000000000000000000000000000000000000000000000000000
102
{BLKREFS
331
8BD
102
}
1001
AcDbDynamicBlockGUID
1000
{FE0FB3DC-5B02-4E93-BB9A-38869E643E6B}
1001
AcDbBlockRepETag
1070
     1
1071
       81
1001
ACAD
1000
DesignCenter Data
1002
{
1070
     1
1070
     4
1002
}
  0
BLOCK_RECORD
  5
8BE
330
1
100
AcDbSymbolTableRecord
100
AcDbBlockTableRecord
  2
4
340
0
310
2800000020000000200000000100080000000000000400000000000000000000000000000000000000000000000080000080000000808000800000008000800080800000C0C0C000C0DCC000F0CAA6000020400000206000002080000020A0000020C0000020E00000400000004020000040400000406000004080000040A0
310
000040C0000040E00000600000006020000060400000606000006080000060A0000060C0000060E00000800000008020000080400000806000008080000080A0000080C0000080E00000A0000000A0200000A0400000A0600000A0800000A0A00000A0C00000A0E00000C0000000C0200000C0400000C0600000C0800000C0
310
A00000C0C00000C0E00000E0000000E0200000E0400000E0600000E0800000E0A00000E0C00000E0E00040000000400020004000400040006000400080004000A0004000C0004000E00040200000402020004020400040206000402080004020A0004020C0004020E000404000004040200040404000404060004040800040
310
40A0004040C0004040E00040600000406020004060400040606000406080004060A0004060C0004060E00040800000408020004080400040806000408080004080A0004080C0004080E00040A0000040A0200040A0400040A0600040A0800040A0A00040A0C00040A0E00040C0000040C0200040C0400040C0600040C08000
310
40C0A00040C0C00040C0E00040E0000040E0200040E0400040E0600040E0800040E0A00040E0C00040E0E00080000000800020008000400080006000800080008000A0008000C0008000E00080200000802020008020400080206000802080008020A0008020C0008020E00080400000804020008040400080406000804080
310
008040A0008040C0008040E00080600000806020008060400080606000806080008060A0008060C0008060E00080800000808020008080400080806000808080008080A0008080C0008080E00080A0000080A0200080A0400080A0600080A0800080A0A00080A0C00080A0E00080C0000080C0200080C0400080C0600080C0
310
800080C0A00080C0C00080C0E00080E0000080E0200080E0400080E0600080E0800080E0A00080E0C00080E0E000C0000000C0002000C0004000C0006000C0008000C000A000C000C000C000E000C0200000C0202000C0204000C0206000C0208000C020A000C020C000C020E000C0400000C0402000C0404000C0406000C0
310
408000C040A000C040C000C040E000C0600000C0602000C0604000C0606000C0608000C060A000C060C000C060E000C0800000C0802000C0804000C0806000C0808000C080A000C080C000C080E000C0A00000C0A02000C0A04000C0A06000C0A08000C0A0A000C0A0C000C0A0E000C0C00000C0C02000C0C04000C0C06000
310
C0C08000C0C0A000F0FBFF00A4A0A000808080000000FF0000FF000000FFFF00FF000000FF00FF00FFFF0000FFFFFF000000000000000000000000000000000000000000000000000000000000000000000000000000000000000000000000000000000000000000FF00000000000000000000000000000000000000000000
310
00000000000000FFFFFFFFFF0000000000000000000000000000000000000000000000000000FF00FFFFFF00FF0000000000000000000000000000000000000000000000FFFFFFFFFFFFFFFFFF00000000000000000000000000000000000000FF00FFFF0000FFFFFFFFFFFFFF0000000000000000000000000000000000FF
310
FFFFFF00000000FF0000FFFF00000000000000000000000000000000000000FFFFFFFF00000000FF0000FF0000000000000000000000000000000000000000FFFFFF000000FFFF00FFFFFF0000000000000000000000000000000000000000FF000000FFFF00FFFF0000FF00000000000000000000000000000000000000FF
310
FF000000FFFFFFFFFFFFFF000000000000000000000000000000000000FF00FFFF000000FF0000FFFF00000000000000000000000000000000FF00FFFFFFFF0000000000FF0000FF00000000000000000000000000000000FFFFFF000000000000000000FFFF00FF00000000000000000000000000000000FFFF0000000000
310
000000FFFFFF00FFFF000000000000000000000000000000FFFF00000000000000FFFF00FFFFFFFF00000000000000000000000000000000FF0000000000000000FF00FFFFFF000000000000000000000000000000000000FF0000000000000000FF0000FF00000000000000000000000000000000000000FF000000000000
310
0000FF0000FF00000000000000000000000000000000000000FF000000000000FFFF00FFFFFF00000000000000000000000000000000000000FF00000000FFFF00FFFF0000FF00000000000000000000000000000000000000FF00000000FFFFFFFFFFFFFF0000000000000000000000000000000000000000FF00000000FF
310
0000FFFF00000000000000000000000000000000000000000000FF00000000FF0000FF0000000000000000000000000000000000000000000000FF00000000FFFF00FF0000000000000000000000000000000000000000000000FF0000FFFFFF00FFFF0000000000000000000000000000000000000000000000FFFFFF00FF
310
FFFFFF000000000000000000000000000000000000000000000000FFFF00FFFFFF0000000000000000000000000000000000000000000000000000FFFFFFFFFF000000000000000000000000000000000000000000000000000000FF00FFFFFF00000000000000000000000000000000000000000000000000000000000000
310
FF00000000000000000000000000000000000000000000000000000000000000000000000000000000000000000000000000000000000000
102
{BLKREFS
331
9E7
102
}
1001
ACAD
1000
DesignCenter Data
1002
{
1070
     1
1070
     4
1002
}
  0
ENDTAB
  0
ENDSEC
  0
SECTION
  2
BLOCKS
  0
BLOCK
  5
20
330
1F
100
AcDbEntity
  8
0
100
AcDbBlockBegin
  2
*Model_Space
 70
     0
 10
0.0
 20
0.0
 30
0.0
  3
*Model_Space
  1

  0
ENDBLK
  5
21
330
1F
100
AcDbEntity
  8
0
100
AcDbBlockEnd
  0
BLOCK
  5
D4
330
D2
100
AcDbEntity
 67
     1
  8
0
100
AcDbBlockBegin
  2
*Paper_Space
 70
     0
 10
0.0
 20
0.0
 30
0.0
  3
*Paper_Space
  1

  0
ENDBLK
  5
D5
330
D2
100
AcDbEntity
 67
     1
  8
0
100
AcDbBlockEnd
  0
BLOCK
  5
D8
330
D6
100
AcDbEntity
 67
     1
  8
0
100
AcDbBlockBegin
  2
*Paper_Space0
 70
     0
 10
0.0
 20
0.0
 30
0.0
  3
*Paper_Space0
  1

  0
ENDBLK
  5
D9
330
D6
100
AcDbEntity
 67
     1
  8
0
100
AcDbBlockEnd
  0
BLOCK
  5
724
330
723
100
AcDbEntity
  8
0
100
AcDbBlockBegin
  2
1
 70
     0
 10
0.0
 20
0.0
 30
0.0
  3
1
  1

  0
ARC
  5
BCA
330
723
100
AcDbEntity
  8
0
  6
Continuous
 62
     7
370
    15
100
AcDbCircle
 10
1853.426651311307
 20
1255.560221121827
 30
0.0
 40
0.2000000000000333
100
AcDbArc
 50
273.6851466551528
 51
8.685146655166725
1001
AcDbBlockRepETag
1070
     1
1071
        0
1005
BCA
  0
ARC
  5
BCB
330
723
100
AcDbEntity
  8
0
  6
Continuous
 62
     7
370
    15
100
AcDbCircle
 10
1846.876745919884
 20
1255.138362808481
 30
0.0
 40
0.2000000000000562
100
AcDbArc
 50
178.6851466551506
 51
273.6851466551528
1001
AcDbBlockRepETag
1070
     1
1071
        1
1005
BCB
  0
ARC
  5
BCC
330
723
100
AcDbEntity
  8
0
  6
Continuous
 62
     7
370
    15
100
AcDbCircle
 10
1882.926651311307
 20
1235.760221121827
 30
0.0
 40
0.199999999999994
100
AcDbArc
 50
273.6851466551528
 51
8.685146655153847
1001
AcDbBlockRepETag
1070
     1
1071
        2
1005
BCC
  0
ARC
  5
BCD
330
723
100
AcDbEntity
  8
0
  6
Continuous
 62
     7
370
    15
100
AcDbCircle
 10
1876.376745919884
 20
1235.338362808481
 30
0.0
 40
0.1999999999999993
100
AcDbArc
 50
178.6851466551506
 51
273.6851466551528
1001
AcDbBlockRepETag
1070
     1
1071
        3
1005
BCD
  0
ARC
  5
BCE
330
723
100
AcDbEntity
  8
0
  6
Continuous
 62
     7
370
    15
100
AcDbCircle
 10
1823.926651311307
 20
1275.360221121827
 30
0.0
 40
0.200000000000029
100
AcDbArc
 50
273.6851466551659
 51
8.685146655153847
1001
AcDbBlockRepETag
1070
     1
1071
        4
1005
BCE
  0
ARC
  5
BCF
330
723
100
AcDbEntity
  8
0
  6
Continuous
 62
     7
370
    15
100
AcDbCircle
 10
1817.376745919884
 20
1274.938362808481
 30
0.0
 40
0.200000000000026
100
AcDbArc
 50
178.6851466551636
 51
273.6851466551659
1001
AcDbBlockRepETag
1070
     1
1071
        5
1005
BCF
  0
ARC
  5
BD0
330
723
100
AcDbEntity
  8
0
  6
Continuous
 62
     7
370
    15
100
AcDbCircle
 10
1906.219838736384
 20
1218.300457188808
 30
0.0
 40
0.2000000000000227
100
AcDbArc
 50
273.878524502853
 51
8.878524502840942
1001
AcDbBlockRepETag
1070
     1
1071
        6
1005
BD0
  0
ARC
  5
BD1
330
723
100
AcDbEntity
  8
0
  6
Continuous
 62
     7
370
    15
100
AcDbCircle
 10
1899.671394453368
 20
1217.856494864535
 30
0.0
 40
0.2000000000000255
100
AcDbArc
 50
178.8785245028448
 51
273.878524502827
1001
AcDbBlockRepETag
1070
     1
1071
        7
1005
BD1
  0
ARC
  5
BD2
330
723
100
AcDbEntity
  8
0
  6
Continuous
 62
     7
370
    15
100
AcDbCircle
 10
1794.428541868337
 20
1295.121386214703
 30
0.0
 40
0.1999999999999906
100
AcDbArc
 50
273.878524502827
 51
8.878524502840942
1001
AcDbBlockRepETag
1070
     1
1071
        8
1005
BD2
  0
ARC
  5
BD3
330
723
100
AcDbEntity
  8
0
  6
Continuous
 62
     7
370
    15
100
AcDbCircle
 10
1787.880097585321
 20
1294.677423890431
 30
0.0
 40
0.200000000000025
100
AcDbArc
 50
178.8785245028578
 51
273.878524502853
1001
AcDbBlockRepETag
1070
     1
1071
        9
1005
BD3
  0
LINE
  5
BD4
330
723
100
AcDbEntity
  8
0
  6
Continuous
 62
     7
370
    15
100
AcDbLine
 10
1853.62435792459
 20
1255.590422033474
 30
0.0
 11
1853.429944379534
 21
1256.863126778881
 31
0.0
1001
AcDbBlockRepETag
1070
     1
1071
       10
1005
BD4
  0
LINE
  5
BD5
330
723
100
AcDbEntity
  8
0
  6
Continuous
 62
     7
370
    15
100
AcDbLine
 10
1846.706341474316
 20
1256.430081168036
 30
0.0
 11
1846.67679858103
 21
1255.142952109652
 31
0.0
1001
AcDbBlockRepETag
1070
     1
1071
       11
1005
BD5
  0
LINE
  5
BD6
330
723
100
AcDbEntity
  8
0
  6
Continuous
 62
     7
370
    15
100
AcDbLine
 10
1883.12435792459
 20
1235.790422033474
 30
0.0
 11
1882.929944379534
 21
1237.06312677888
 31
0.0
1001
AcDbBlockRepETag
1070
     1
1071
       12
1005
BD6
  0
LINE
  5
BD7
330
723
100
AcDbEntity
  8
0
  6
Continuous
 62
     7
370
    15
100
AcDbLine
 10
1876.206341474317
 20
1236.630081168036
 30
0.0
 11
1876.17679858103
 21
1235.342952109652
 31
0.0
1001
AcDbBlockRepETag
1070
     1
1071
       13
1005
BD7
  0
LINE
  5
BD8
330
723
100
AcDbEntity
  8
0
  6
Continuous
 62
     7
370
    15
100
AcDbLine
 10
1824.12435792459
 20
1275.390422033474
 30
0.0
 11
1823.929944379534
 21
1276.663126778881
 31
0.0
1001
AcDbBlockRepETag
1070
     1
1071
       14
1005
BD8
  0
LINE
  5
BD9
330
723
100
AcDbEntity
  8
0
  6
Continuous
 62
     7
370
    15
100
AcDbLine
 10
1817.206341474317
 20
1276.230081168036
 30
0.0
 11
1817.17679858103
 21
1274.942952109652
 31
0.0
1001
AcDbBlockRepETag
1070
     1
1071
       15
1005
BD9
  0
LINE
  5
BDA
330
723
100
AcDbEntity
  8
0
  6
Continuous
 62
     7
370
    15
100
AcDbLine
 10
1794.626145425263
 20
1295.152254228736
 30
0.0
 11
1794.427437515146
 21
1296.424295565304
 31
0.0
1001
AcDbBlockRepETag
1070
     1
1071
       16
1005
BDA
  0
LINE
  5
BDB
330
723
100
AcDbEntity
  8
0
  6
Continuous
 62
     7
370
    15
100
AcDbLine
 10
1787.705334465597
 20
1295.968559765335
 30
0.0
 11
1787.680135896053
 21
1294.681338328451
 31
0.0
1001
AcDbBlockRepETag
1070
     1
1071
       17
1005
BDB
  0
LINE
  5
BDC
330
723
100
AcDbEntity
  8
0
  6
Continuous
 62
     7
370
    15
100
AcDbLine
 10
1906.417442293309
 20
1218.331325202841
 30
0.0
 11
1906.218734383193
 21
1219.603366539409
 31
0.0
1001
AcDbBlockRepETag
1070
     1
1071
       18
1005
BDC
  0
LINE
  5
BDD
330
723
100
AcDbEntity
  8
0
  6
Continuous
 62
     7
370
    15
100
AcDbLine
 10
1899.496631333644
 20
1219.14763073944
 30
0.0
 11
1899.4714327641
 21
1217.860409302556
 31
0.0
1001
AcDbBlockRepETag
1070
     1
1071
       19
1005
BDD
  0
LINE
  5
BDE
330
723
100
AcDbEntity
  8
0
  6
Continuous
 62
     7
370
    15
100
AcDbLine
 10
1906.297244780634
 20
1207.079994835869
 30
0.0
 11
1906.088977342405
 21
1210.151939549749
 31
0.0
1001
AcDbBlockRepETag
1070
     1
1071
       20
1005
BDE
  0
LINE
  5
BDF
330
723
100
AcDbEntity
  8
0
  6
Continuous
 62
     7
370
    15
100
AcDbLine
 10
1900.891054707855
 20
1209.9452293111
 30
0.0
 11
1901.109154329622
 21
1206.728259890038
 31
0.0
1001
AcDbBlockRepETag
1070
     1
1071
       21
1005
BDF
  0
LINE
  5
BE0
330
723
100
AcDbEntity
  8
0
  6
Continuous
 62
     7
370
    15
100
AcDbLine
 10
1845.944991153753
 20
1213.600954881048
 30
0.0
 11
1842.044991153753
 21
1213.600954881048
 31
0.0
1001
AcDbBlockRepETag
1070
     1
1071
       22
1005
BE0
  0
LINE
  5
BE1
330
723
100
AcDbEntity
  8
0
  6
Continuous
 62
     7
370
    15
100
AcDbLine
 10
1845.944991153753
 20
1213.600954881048
 30
0.0
 11
1845.944991153753
 21
1209.600954881048
 31
0.0
1001
AcDbBlockRepETag
1070
     1
1071
       23
1005
BE1
  0
LINE
  5
BE2
330
723
100
AcDbEntity
  8
0
  6
Continuous
 62
     7
370
    15
100
AcDbLine
 10
1845.944991153753
 20
1209.600954881048
 30
0.0
 11
1842.044991153753
 21
1209.600954881048
 31
0.0
1001
AcDbBlockRepETag
1070
     1
1071
       24
1005
BE2
  0
LINE
  5
BE3
330
723
100
AcDbEntity
  8
0
  6
Continuous
 62
     7
370
    15
100
AcDbLine
 10
1842.044991153753
 20
1213.600954881048
 30
0.0
 11
1842.044991153753
 21
1209.600954881048
 31
0.0
1001
AcDbBlockRepETag
1070
     1
1071
       25
1005
BE3
  0
LINE
  5
BE4
330
723
100
AcDbEntity
  8
0
  6
Continuous
 62
     7
370
    15
100
AcDbLine
 10
1851.944991153753
 20
1213.600954881048
 30
0.0
 11
1851.944991153753
 21
1209.600954881048
 31
0.0
1001
AcDbBlockRepETag
1070
     1
1071
       26
1005
BE4
  0
LINE
  5
BE5
330
723
100
AcDbEntity
  8
0
  6
Continuous
 62
     7
370
    15
100
AcDbLine
 10
1855.844991153753
 20
1213.600954881048
 30
0.0
 11
1851.944991153753
 21
1213.600954881048
 31
0.0
1001
AcDbBlockRepETag
1070
     1
1071
       27
1005
BE5
  0
LINE
  5
BE6
330
723
100
AcDbEntity
  8
0
  6
Continuous
 62
     7
370
    15
100
AcDbLine
 10
1855.844991153753
 20
1213.600954881048
 30
0.0
 11
1855.844991153753
 21
1209.600954881048
 31
0.0
1001
AcDbBlockRepETag
1070
     1
1071
       28
1005
BE6
  0
LINE
  5
BE7
330
723
100
AcDbEntity
  8
0
  6
Continuous
 62
     7
370
    15
100
AcDbLine
 10
1855.844991153753
 20
1209.600954881048
 30
0.0
 11
1851.944991153753
 21
1209.600954881048
 31
0.0
1001
AcDbBlockRepETag
1070
     1
1071
       29
1005
BE7
  0
ARC
  5
BE8
330
723
100
AcDbEntity
  8
0
  6
Continuous
 62
     7
370
    15
100
AcDbCircle
 10
1775.957288614147
 20
1222.600954881048
 30
0.0
 40
0.5
100
AcDbArc
 50
90.0
 51
180.0
1001
AcDbBlockRepETag
1070
     1
1071
       30
1005
BE8
  0
ARC
  5
BE9
330
723
100
AcDbEntity
  8
0
  6
Continuous
 62
     7
370
    15
100
AcDbCircle
 10
1775.957288614147
 20
1216.600954881048
 30
0.0
 40
0.5
100
AcDbArc
 50
180.0
 51
270.0
1001
AcDbBlockRepETag
1070
     1
1071
       31
1005
BE9
  0
LINE
  5
BEA
330
723
100
AcDbEntity
  8
0
  6
Continuous
 62
     7
370
    15
100
AcDbLine
 10
1775.957288614147
 20
1216.100954881048
 30
0.0
 11
1781.922845401535
 21
1216.100954881048
 31
0.0
1001
AcDbBlockRepETag
1070
     1
1071
       32
1005
BEA
  0
LINE
  5
BEB
330
723
100
AcDbEntity
  8
0
  6
Continuous
 62
     7
370
    15
100
AcDbLine
 10
1837.233951585318
 20
1226.100954881047
 30
0.0
 11
1837.233951585318
 21
1209.600954881048
 31
0.0
1001
AcDbBlockRepETag
1070
     1
1071
       33
1005
BEB
  0
LINE
  5
BEC
330
723
100
AcDbEntity
  8
0
  6
Continuous
 62
     7
370
    15
100
AcDbLine
 10
1829.733951585318
 20
1225.901238469149
 30
0.0
 11
1837.233951585318
 21
1226.100954881047
 31
0.0
1001
AcDbBlockRepETag
1070
     1
1071
       34
1005
BEC
  0
LINE
  5
BED
330
723
100
AcDbEntity
  8
0
  6
Continuous
 62
     7
370
    15
100
AcDbLine
 10
1829.733951585318
 20
1225.100954881048
 30
0.0
 11
1829.733951585318
 21
1225.901238469149
 31
0.0
1001
AcDbBlockRepETag
1070
     1
1071
       35
1005
BED
  0
LINE
  5
BEE
330
723
100
AcDbEntity
  8
0
  6
Continuous
 62
     7
370
    15
100
AcDbLine
 10
1814.233951585318
 20
1224.900954881048
 30
0.0
 11
1829.733951585318
 21
1225.100954881048
 31
0.0
1001
AcDbBlockRepETag
1070
     1
1071
       36
1005
BEE
  0
LINE
  5
BEF
330
723
100
AcDbEntity
  8
0
  6
Continuous
 62
     7
370
    15
100
AcDbLine
 10
1814.233951585318
 20
1222.100954881048
 30
0.0
 11
1814.233951585318
 21
1224.900954881048
 31
0.0
1001
AcDbBlockRepETag
1070
     1
1071
       37
1005
BEF
  0
LINE
  5
BF0
330
723
100
AcDbEntity
  8
0
  6
Continuous
 62
     7
370
    15
100
AcDbLine
 10
1787.233951585318
 20
1220.800954881048
 30
0.0
 11
1814.233951585318
 21
1222.100954881048
 31
0.0
1001
AcDbBlockRepETag
1070
     1
1071
       38
1005
BF0
  0
LINE
  5
BF1
330
723
100
AcDbEntity
  8
0
  6
Continuous
 62
     7
370
    15
100
AcDbLine
 10
1787.233951585318
 20
1218.800954881048
 30
0.0
 11
1787.233951585318
 21
1220.800954881048
 31
0.0
1001
AcDbBlockRepETag
1070
     1
1071
       39
1005
BF1
  0
ARC
  5
BF2
330
723
100
AcDbEntity
  8
0
  6
Continuous
 62
     7
370
    15
100
AcDbCircle
 10
1786.233951585318
 20
1218.800954881048
 30
0.0
 40
1.0
100
AcDbArc
 50
270.0
 51
0.0
1001
AcDbBlockRepETag
1070
     1
1071
       40
1005
BF2
  0
ARC
  5
BF3
330
723
100
AcDbEntity
  8
0
  6
Continuous
 62
     7
370
    15
100
AcDbCircle
 10
1786.233951585318
 20
1218.800954881048
 30
0.0
 40
1.0
100
AcDbArc
 50
180.0
 51
270.0
1001
AcDbBlockRepETag
1070
     1
1071
       41
1005
BF3
  0
LINE
  5
BF4
330
723
100
AcDbEntity
  8
0
  6
Continuous
 62
     7
370
    15
100
AcDbLine
 10
1785.233951585318
 20
1219.500954881048
 30
0.0
 11
1785.233951585318
 21
1218.800954881048
 31
0.0
1001
AcDbBlockRepETag
1070
     1
1071
       42
1005
BF4
  0
LINE
  5
BF5
330
723
100
AcDbEntity
  8
0
  6
Continuous
 62
     7
370
    15
100
AcDbLine
 10
1783.733951585318
 20
1219.500954881048
 30
0.0
 11
1785.233951585318
 21
1219.500954881048
 31
0.0
1001
AcDbBlockRepETag
1070
     1
1071
       43
1005
BF5
  0
LINE
  5
BF6
330
723
100
AcDbEntity
  8
0
  6
Continuous
 62
     7
370
    15
100
AcDbLine
 10
1783.933951585319
 20
1216.500954881047
 30
0.0
 11
1783.733951585318
 21
1219.500954881048
 31
0.0
1001
AcDbBlockRepETag
1070
     1
1071
       44
1005
BF6
  0
LINE
  5
BF7
330
723
100
AcDbEntity
  8
0
  6
Continuous
 62
     7
370
    15
100
AcDbLine
 10
1785.233951585318
 20
1216.500954881047
 30
0.0
 11
1783.933951585319
 21
1216.500954881047
 31
0.0
1001
AcDbBlockRepETag
1070
     1
1071
       45
1005
BF7
  0
ARC
  5
BF8
330
723
100
AcDbEntity
  8
0
  6
Continuous
 62
     7
370
    15
100
AcDbCircle
 10
1785.233951585318
 20
1215.300954881048
 30
0.0
 40
1.200000000000045
100
AcDbArc
 50
0.0
 51
90.0
1001
AcDbBlockRepETag
1070
     1
1071
       46
1005
BF8
  0
ARC
  5
BF9
330
723
100
AcDbEntity
  8
0
  6
Continuous
 62
     7
370
    15
100
AcDbCircle
 10
1785.233951585318
 20
1215.300954881048
 30
0.0
 40
1.200000000000045
100
AcDbArc
 50
270.0
 51
0.0
1001
AcDbBlockRepETag
1070
     1
1071
       47
1005
BF9
  0
LINE
  5
BFA
330
723
100
AcDbEntity
  8
0
  6
Continuous
 62
     7
370
    15
100
AcDbLine
 10
1776.433951585318
 20
1214.100954881048
 30
0.0
 11
1785.233951585318
 21
1214.100954881048
 31
0.0
1001
AcDbBlockRepETag
1070
     1
1071
       48
1005
BFA
  0
LINE
  5
BFB
330
723
100
AcDbEntity
  8
0
  6
Continuous
 62
     7
370
    15
100
AcDbLine
 10
1766.183951585318
 20
1224.100954881048
 30
0.0
 11
1776.433951585318
 21
1214.100954881048
 31
0.0
1001
AcDbBlockRepETag
1070
     1
1071
       49
1005
BFB
  0
LINE
  5
BFC
330
723
100
AcDbEntity
  8
0
  6
Continuous
 62
     7
370
    15
100
AcDbLine
 10
1766.183951585318
 20
1307.100954881048
 30
0.0
 11
1766.183951585318
 21
1224.100954881048
 31
0.0
1001
AcDbBlockRepETag
1070
     1
1071
       50
1005
BFC
  0
LINE
  5
BFD
330
723
100
AcDbEntity
  8
0
  6
Continuous
 62
     7
370
    15
100
AcDbLine
 10
1774.233951585318
 20
1307.100954881048
 30
0.0
 11
1766.183951585318
 21
1307.100954881048
 31
0.0
1001
AcDbBlockRepETag
1070
     1
1071
       51
1005
BFD
  0
LINE
  5
BFE
330
723
100
AcDbEntity
  8
0
  6
Continuous
 62
     7
370
    15
100
AcDbLine
 10
1774.233951585318
 20
1305.100954881048
 30
0.0
 11
1774.233951585318
 21
1307.100954881048
 31
0.0
1001
AcDbBlockRepETag
1070
     1
1071
       52
1005
BFE
  0
LINE
  5
BFF
330
723
100
AcDbEntity
  8
0
  6
Continuous
 62
     7
370
    15
100
AcDbLine
 10
1768.433951585318
 20
1305.100954881048
 30
0.0
 11
1774.233951585318
 21
1305.100954881048
 31
0.0
1001
AcDbBlockRepETag
1070
     1
1071
       53
1005
BFF
  0
LINE
  5
C00
330
723
100
AcDbEntity
  8
0
  6
Continuous
 62
     7
370
    15
100
AcDbLine
 10
1768.433951585318
 20
1302.700954881047
 30
0.0
 11
1768.433951585318
 21
1305.100954881048
 31
0.0
1001
AcDbBlockRepETag
1070
     1
1071
       54
1005
C00
  0
LINE
  5
C01
330
723
100
AcDbEntity
  8
0
  6
Continuous
 62
     7
370
    15
100
AcDbLine
 10
1776.433951585318
 20
1302.700954881047
 30
0.0
 11
1768.433951585318
 21
1302.700954881047
 31
0.0
1001
AcDbBlockRepETag
1070
     1
1071
       55
1005
C01
  0
LINE
  5
C02
330
723
100
AcDbEntity
  8
0
  6
Continuous
 62
     7
370
    15
100
AcDbLine
 10
1776.433951585318
 20
1293.700954881048
 30
0.0
 11
1776.433951585318
 21
1302.700954881047
 31
0.0
1001
AcDbBlockRepETag
1070
     1
1071
       56
1005
C02
  0
LINE
  5
C03
330
723
100
AcDbEntity
  8
0
  6
Continuous
 62
     7
370
    15
100
AcDbLine
 10
1805.933951585318
 20
1295.700954881048
 30
0.0
 11
1776.433951585318
 21
1293.700954881048
 31
0.0
1001
AcDbBlockRepETag
1070
     1
1071
       57
1005
C03
  0
LINE
  5
C04
330
723
100
AcDbEntity
  8
0
  6
Continuous
 62
     7
370
    15
100
AcDbLine
 10
1805.933951585318
 20
1274.000954881048
 30
0.0
 11
1805.933951585318
 21
1295.700954881048
 31
0.0
1001
AcDbBlockRepETag
1070
     1
1071
       58
1005
C04
  0
LINE
  5
C05
330
723
100
AcDbEntity
  8
0
  6
Continuous
 62
     7
370
    15
100
AcDbLine
 10
1835.433951585318
 20
1275.900954881048
 30
0.0
 11
1805.933951585318
 21
1274.000954881048
 31
0.0
1001
AcDbBlockRepETag
1070
     1
1071
       59
1005
C05
  0
LINE
  5
C06
330
723
100
AcDbEntity
  8
0
  6
Continuous
 62
     7
370
    15
100
AcDbLine
 10
1835.433951585318
 20
1254.200954881047
 30
0.0
 11
1835.433951585318
 21
1275.900954881048
 31
0.0
1001
AcDbBlockRepETag
1070
     1
1071
       60
1005
C06
  0
LINE
  5
C07
330
723
100
AcDbEntity
  8
0
  6
Continuous
 62
     7
370
    15
100
AcDbLine
 10
1864.933951585318
 20
1256.100954881048
 30
0.0
 11
1835.433951585318
 21
1254.200954881047
 31
0.0
1001
AcDbBlockRepETag
1070
     1
1071
       61
1005
C07
  0
LINE
  5
C08
330
723
100
AcDbEntity
  8
0
  6
Continuous
 62
     7
370
    15
100
AcDbLine
 10
1864.933951585318
 20
1234.400954881048
 30
0.0
 11
1864.933951585318
 21
1256.100954881048
 31
0.0
1001
AcDbBlockRepETag
1070
     1
1071
       62
1005
C08
  0
LINE
  5
C09
330
723
100
AcDbEntity
  8
0
  6
Continuous
 62
     7
370
    15
100
AcDbLine
 10
1894.433951585318
 20
1236.300954881048
 30
0.0
 11
1864.933951585318
 21
1234.400954881048
 31
0.0
1001
AcDbBlockRepETag
1070
     1
1071
       63
1005
C09
  0
LINE
  5
C0A
330
723
100
AcDbEntity
  8
0
  6
Continuous
 62
     7
370
    15
100
AcDbLine
 10
1894.433951585318
 20
1217.300954881048
 30
0.0
 11
1894.433951585318
 21
1236.300954881048
 31
0.0
1001
AcDbBlockRepETag
1070
     1
1071
       64
1005
C0A
  0
LINE
  5
C0B
330
723
100
AcDbEntity
  8
0
  6
Continuous
 62
     7
370
    15
100
AcDbLine
 10
1913.933951585318
 20
1218.622988779353
 30
0.0
 11
1894.433951585318
 21
1217.300954881048
 31
0.0
1001
AcDbBlockRepETag
1070
     1
1071
       65
1005
C0B
  0
LINE
  5
C0C
330
723
100
AcDbEntity
  8
0
  6
Continuous
 62
     7
370
    15
100
AcDbLine
 10
1913.933951585318
 20
1212.622988779353
 30
0.0
 11
1913.933951585318
 21
1218.622988779353
 31
0.0
1001
AcDbBlockRepETag
1070
     1
1071
       66
1005
C0C
  0
LINE
  5
C0D
330
723
100
AcDbEntity
  8
0
  6
Continuous
 62
     7
370
    15
100
AcDbLine
 10
1915.933951585318
 20
1212.622988779353
 30
0.0
 11
1913.933951585318
 21
1212.622988779353
 31
0.0
1001
AcDbBlockRepETag
1070
     1
1071
       67
1005
C0D
  0
LINE
  5
C0E
330
723
100
AcDbEntity
  8
0
  6
Continuous
 62
     7
370
    15
100
AcDbLine
 10
1915.933951585318
 20
1218.622988779353
 30
0.0
 11
1915.933951585318
 21
1212.622988779353
 31
0.0
1001
AcDbBlockRepETag
1070
     1
1071
       68
1005
C0E
  0
LINE
  5
C0F
330
723
100
AcDbEntity
  8
0
  6
Continuous
 62
     7
370
    15
100
AcDbLine
 10
1918.183951585318
 20
1218.622988779353
 30
0.0
 11
1913.933951585318
 21
1218.622988779353
 31
0.0
1001
AcDbBlockRepETag
1070
     1
1071
       69
1005
C0F
  0
LINE
  5
C10
330
723
100
AcDbEntity
  8
0
  6
Continuous
 62
     7
370
    15
100
AcDbLine
 10
1918.183951585318
 20
1210.632930743344
 30
0.0
 11
1918.183951585318
 21
1218.622988779353
 31
0.0
1001
AcDbBlockRepETag
1070
     1
1071
       70
1005
C10
  0
LINE
  5
C11
330
723
100
AcDbEntity
  8
0
  6
Continuous
 62
     7
370
    15
100
AcDbLine
 10
1892.233951585318
 20
1209.600954881048
 30
0.0
 11
1918.183951585318
 21
1210.632930743344
 31
0.0
1001
AcDbBlockRepETag
1070
     1
1071
       71
1005
C11
  0
ARC
  5
C12
330
723
100
AcDbEntity
  8
0
  6
Continuous
 62
     7
370
    15
100
AcDbCircle
 10
1781.922845401535
 20
1216.600954881048
 30
0.0
 40
0.5000000000000444
100
AcDbArc
 50
270.0
 51
3.814074834287754
1001
AcDbBlockRepETag
1070
     1
1071
       72
1005
C12
  0
ARC
  5
C13
330
723
100
AcDbEntity
  8
0
  6
Continuous
 62
     7
370
    15
100
AcDbCircle
 10
1782.61173182676
 20
1221.300954881048
 30
0.0
 40
0.5
100
AcDbArc
 50
90.0
 51
183.8140748342878
1001
AcDbBlockRepETag
1070
     1
1071
       73
1005
C13
  0
ARC
  5
C14
330
723
100
AcDbEntity
  8
0
  6
Continuous
 62
     7
370
    15
100
AcDbCircle
 10
1785.457288614148
 20
1222.600954881048
 30
0.0
 40
0.5
100
AcDbArc
 50
0.0
 51
90.0
1001
AcDbBlockRepETag
1070
     1
1071
       74
1005
C14
  0
LINE
  5
C15
330
723
100
AcDbEntity
  8
0
  6
Continuous
 62
     7
370
    15
100
AcDbLine
 10
1782.61173182676
 20
1221.800954881048
 30
0.0
 11
1785.957288614148
 21
1221.800954881048
 31
0.0
1001
AcDbBlockRepETag
1070
     1
1071
       75
1005
C15
  0
LINE
  5
C16
330
723
100
AcDbEntity
  8
0
  6
Continuous
 62
     7
370
    15
100
AcDbLine
 10
1782.421737980463
 20
1216.634214386309
 30
0.0
 11
1782.112839247831
 21
1221.267695375786
 31
0.0
1001
AcDbBlockRepETag
1070
     1
1071
       76
1005
C16
  0
LINE
  5
C17
330
723
100
AcDbEntity
  8
0
  6
Continuous
 62
     7
370
    15
100
AcDbLine
 10
1785.457288614148
 20
1223.100954881048
 30
0.0
 11
1775.957288614147
 21
1223.100954881048
 31
0.0
1001
AcDbBlockRepETag
1070
     1
1071
       77
1005
C17
  0
LINE
  5
C18
330
723
100
AcDbEntity
  8
0
  6
Continuous
 62
     7
370
    15
100
AcDbLine
 10
1775.457288614148
 20
1222.600954881048
 30
0.0
 11
1775.457288614148
 21
1216.600954881048
 31
0.0
1001
AcDbBlockRepETag
1070
     1
1071
       78
1005
C18
  0
LINE
  5
C19
330
723
100
AcDbEntity
  8
0
  6
Continuous
 62
     7
370
    15
100
AcDbLine
 10
1785.957288614148
 20
1221.800954881048
 30
0.0
 11
1785.957288614148
 21
1222.600954881048
 31
0.0
1001
AcDbBlockRepETag
1070
     1
1071
       79
1005
C19
  0
LINE
  5
C1A
330
723
100
AcDbEntity
  8
0
  6
Continuous
 62
     7
370
    15
100
AcDbLine
 10
1837.233951585318
 20
1209.600954881048
 30
0.0
 11
1842.044991153753
 21
1209.600954881048
 31
0.0
1001
AcDbBlockRepETag
1070
     1
1071
       80
1005
C1A
  0
LINE
  5
C1B
330
723
100
AcDbEntity
  8
0
  6
Continuous
 62
     7
370
    15
100
AcDbLine
 10
1845.944991153753
 20
1209.600954881048
 30
0.0
 11
1851.944991153753
 21
1209.600954881048
 31
0.0
1001
AcDbBlockRepETag
1070
     1
1071
       81
1005
C1B
  0
LINE
  5
C1C
330
723
100
AcDbEntity
  8
0
  6
Continuous
 62
     7
370
    15
100
AcDbLine
 10
1855.844991153753
 20
1209.600954881048
 30
0.0
 11
1892.233951585318
 21
1209.600954881048
 31
0.0
1001
AcDbBlockRepETag
1070
     1
1071
       82
1005
C1C
  0
LINE
  5
C1D
330
723
100
AcDbEntity
  8
0
  6
Continuous
 62
     7
370
    15
100
AcDbLine
 10
1853.037656050975
 20
1258.842004691146
 30
0.0
 11
1846.841535376197
 21
1258.442932512092
 31
0.0
1001
AcDbBlockRepETag
1070
     1
1071
       83
1005
C1D
  0
LWPOLYLINE
  5
C1E
330
723
100
AcDbEntity
  8
0
  6
Continuous
 62
     7
370
    15
100
AcDbPolyline
 90
        4
 70
   128
 43
0.0
 10
1853.037656050975
 20
1258.842004691146
 10
1853.056370453589
 20
1258.721502816595
 10
1853.267271399966
 20
1257.362602526931
 10
1853.345570690973
 20
1256.857692541312
1001
AcDbBlockRepETag
1070
     1
1071
       84
1005
C1E
  0
LINE
  5
C1F
330
723
100
AcDbEntity
  8
0
  6
Continuous
 62
     7
370
    15
100
AcDbLine
 10
1853.429944379534
 20
1256.863126778881
 30
0.0
 11
1853.345570690973
 21
1256.857692541312
 31
0.0
1001
AcDbBlockRepETag
1070
     1
1071
       85
1005
C1F
  0
LINE
  5
C20
330
723
100
AcDbEntity
  8
0
  6
Continuous
 62
     7
370
    15
100
AcDbLine
 10
1846.790715162877
 20
1256.435515405604
 30
0.0
 11
1846.706341474316
 21
1256.430081168036
 31
0.0
1001
AcDbBlockRepETag
1070
     1
1071
       86
1005
C20
  0
LWPOLYLINE
  5
C21
330
723
100
AcDbEntity
  8
0
  6
Continuous
 62
     7
370
    15
100
AcDbPolyline
 90
        3
 70
   128
 43
0.0
 10
1846.790715162877
 20
1256.435515405604
 10
1846.803596961072
 20
1256.946298071544
 10
1846.841535376197
 20
1258.442932512092
1001
AcDbBlockRepETag
1070
     1
1071
       87
1005
C21
  0
LINE
  5
C22
330
723
100
AcDbEntity
  8
0
  6
Continuous
 62
     7
370
    15
100
AcDbLine
 10
1882.537656050974
 20
1239.042004691146
 30
0.0
 11
1876.341535376198
 21
1238.642932512092
 31
0.0
1001
AcDbBlockRepETag
1070
     1
1071
       88
1005
C22
  0
LWPOLYLINE
  5
C23
330
723
100
AcDbEntity
  8
0
  6
Continuous
 62
     7
370
    15
100
AcDbPolyline
 90
        4
 70
   128
 43
0.0
 10
1882.537656050974
 20
1239.042004691146
 10
1882.556370453589
 20
1238.921502816595
 10
1882.767271399966
 20
1237.562602526931
 10
1882.845570690973
 20
1237.057692541312
1001
AcDbBlockRepETag
1070
     1
1071
       89
1005
C23
  0
LINE
  5
C24
330
723
100
AcDbEntity
  8
0
  6
Continuous
 62
     7
370
    15
100
AcDbLine
 10
1882.929944379534
 20
1237.06312677888
 30
0.0
 11
1882.845570690973
 21
1237.057692541312
 31
0.0
1001
AcDbBlockRepETag
1070
     1
1071
       90
1005
C24
  0
LINE
  5
C25
330
723
100
AcDbEntity
  8
0
  6
Continuous
 62
     7
370
    15
100
AcDbLine
 10
1876.290715162877
 20
1236.635515405605
 30
0.0
 11
1876.206341474317
 21
1236.630081168036
 31
0.0
1001
AcDbBlockRepETag
1070
     1
1071
       91
1005
C25
  0
LWPOLYLINE
  5
C26
330
723
100
AcDbEntity
  8
0
  6
Continuous
 62
     7
370
    15
100
AcDbPolyline
 90
        3
 70
   128
 43
0.0
 10
1876.290715162877
 20
1236.635515405605
 10
1876.303596961072
 20
1237.146298071544
 10
1876.341535376198
 20
1238.642932512092
1001
AcDbBlockRepETag
1070
     1
1071
       92
1005
C26
  0
LINE
  5
C27
330
723
100
AcDbEntity
  8
0
  6
Continuous
 62
     7
370
    15
100
AcDbLine
 10
1823.537656050974
 20
1278.642004691145
 30
0.0
 11
1817.341535376198
 21
1278.242932512092
 31
0.0
1001
AcDbBlockRepETag
1070
     1
1071
       93
1005
C27
  0
LWPOLYLINE
  5
C28
330
723
100
AcDbEntity
  8
0
  6
Continuous
 62
     7
370
    15
100
AcDbPolyline
 90
        4
 70
   128
 43
0.0
 10
1823.537656050974
 20
1278.642004691145
 10
1823.556370453589
 20
1278.521502816595
 10
1823.767271399966
 20
1277.16260252693
 10
1823.845570690973
 20
1276.657692541312
1001
AcDbBlockRepETag
1070
     1
1071
       94
1005
C28
  0
LINE
  5
C29
330
723
100
AcDbEntity
  8
0
  6
Continuous
 62
     7
370
    15
100
AcDbLine
 10
1823.929944379534
 20
1276.663126778881
 30
0.0
 11
1823.845570690973
 21
1276.657692541312
 31
0.0
1001
AcDbBlockRepETag
1070
     1
1071
       95
1005
C29
  0
LINE
  5
C2A
330
723
100
AcDbEntity
  8
0
  6
Continuous
 62
     7
370
    15
100
AcDbLine
 10
1817.290715162877
 20
1276.235515405604
 30
0.0
 11
1817.206341474317
 21
1276.230081168036
 31
0.0
1001
AcDbBlockRepETag
1070
     1
1071
       96
1005
C2A
  0
LWPOLYLINE
  5
C2B
330
723
100
AcDbEntity
  8
0
  6
Continuous
 62
     7
370
    15
100
AcDbPolyline
 90
        3
 70
   128
 43
0.0
 10
1817.290715162877
 20
1276.235515405604
 10
1817.303596961072
 20
1276.746298071544
 10
1817.341535376198
 20
1278.242932512092
1001
AcDbBlockRepETag
1070
     1
1071
       97
1005
C2B
  0
LINE
  5
C2C
330
723
100
AcDbEntity
  8
0
  6
Continuous
 62
     7
370
    15
100
AcDbLine
 10
1794.028472562028
 20
1298.401838204682
 30
0.0
 11
1787.833734075767
 21
1297.981855934427
 31
0.0
1001
AcDbBlockRepETag
1070
     1
1071
       98
1005
C2C
  0
LWPOLYLINE
  5
C2D
330
723
100
AcDbEntity
  8
0
  6
Continuous
 62
     7
370
    15
100
AcDbPolyline
 90
        4
 70
   128
 43
0.0
 10
1794.028472562028
 20
1298.401838204682
 10
1794.047593560765
 20
1298.281400178948
 10
1794.263079694616
 20
1296.923219435251
 10
1794.343082648094
 20
1296.418576591267
1001
AcDbBlockRepETag
1070
     1
1071
       99
1005
C2D
  0
LINE
  5
C2E
330
723
100
AcDbEntity
  8
0
  6
Continuous
 62
     7
370
    15
100
AcDbLine
 10
1794.427437515146
 20
1296.424295565304
 30
0.0
 11
1794.343082648094
 21
1296.418576591267
 31
0.0
1001
AcDbBlockRepETag
1070
     1
1071
      100
1005
C2E
  0
LINE
  5
C2F
330
723
100
AcDbEntity
  8
0
  6
Continuous
 62
     7
370
    15
100
AcDbLine
 10
1787.789689332649
 20
1295.974278739372
 30
0.0
 11
1787.705334465597
 21
1295.968559765335
 31
0.0
1001
AcDbBlockRepETag
1070
     1
1071
      101
1005
C2F
  0
LWPOLYLINE
  5
C30
330
723
100
AcDbEntity
  8
0
  6
Continuous
 62
     7
370
    15
100
AcDbPolyline
 90
        3
 70
   128
 43
0.0
 10
1787.789689332649
 20
1295.974278739372
 10
1787.800847128314
 20
1296.485101973128
 10
1787.833734075767
 20
1297.981855934427
1001
AcDbBlockRepETag
1070
     1
1071
      102
1005
C30
  0
LINE
  5
C31
330
723
100
AcDbEntity
  8
0
  6
Continuous
 62
     7
370
    15
100
AcDbLine
 10
1905.819769430075
 20
1221.580909178787
 30
0.0
 11
1899.625030943814
 21
1221.160926908532
 31
0.0
1001
AcDbBlockRepETag
1070
     1
1071
      103
1005
C31
  0
LWPOLYLINE
  5
C32
330
723
100
AcDbEntity
  8
0
  6
Continuous
 62
     7
370
    15
100
AcDbPolyline
 90
        4
 70
   128
 43
0.0
 10
1905.819769430075
 20
1221.580909178787
 10
1905.838890428812
 20
1221.460471153053
 10
1906.054376562663
 20
1220.102290409356
 10
1906.134379516141
 20
1219.597647565372
1001
AcDbBlockRepETag
1070
     1
1071
      104
1005
C32
  0
LINE
  5
C33
330
723
100
AcDbEntity
  8
0
  6
Continuous
 62
     7
370
    15
100
AcDbLine
 10
1906.218734383193
 20
1219.603366539409
 30
0.0
 11
1906.134379516141
 21
1219.597647565372
 31
0.0
1001
AcDbBlockRepETag
1070
     1
1071
      105
1005
C33
  0
LINE
  5
C34
330
723
100
AcDbEntity
  8
0
  6
Continuous
 62
     7
370
    15
100
AcDbLine
 10
1899.580986200696
 20
1219.153349713477
 30
0.0
 11
1899.496631333644
 21
1219.14763073944
 31
0.0
1001
AcDbBlockRepETag
1070
     1
1071
      106
1005
C34
  0
LWPOLYLINE
  5
C35
330
723
100
AcDbEntity
  8
0
  6
Continuous
 62
     7
370
    15
100
AcDbPolyline
 90
        3
 70
   128
 43
0.0
 10
1899.580986200696
 20
1219.153349713477
 10
1899.592143996361
 20
1219.664172947233
 10
1899.625030943814
 20
1221.160926908532
1001
AcDbBlockRepETag
1070
     1
1071
      107
1005
C35
  0
LINE
  5
C36
330
723
100
AcDbEntity
  8
0
  6
Continuous
 62
     7
370
    15
100
AcDbLine
 10
1906.297244780634
 20
1207.079994835869
 30
0.0
 11
1901.109154329622
 21
1206.728259890038
 31
0.0
1001
AcDbBlockRepETag
1070
     1
1071
      108
1005
C36
  0
LINE
  5
C37
330
723
100
AcDbEntity
  8
0
  6
Continuous
 62
     7
370
    15
100
AcDbLine
 10
1819.233951585318
 20
1212.200992679661
 30
0.0
 11
1829.033951585318
 21
1212.200992679661
 31
0.0
1001
AcDbBlockRepETag
1070
     1
1071
      109
1005
C37
  0
LINE
  5
C38
330
723
100
AcDbEntity
  8
0
  6
Continuous
 62
     7
370
    15
100
AcDbLine
 10
1829.533951585318
 20
1212.700992679661
 30
0.0
 11
1829.533951585318
 21
1225.098374235886
 31
0.0
1001
AcDbBlockRepETag
1070
     1
1071
      110
1005
C38
  0
LINE
  5
C39
330
723
100
AcDbEntity
  8
0
  6
Continuous
 62
     7
370
    15
100
AcDbLine
 10
1830.533951585318
 20
1212.200992679661
 30
0.0
 11
1831.733951585318
 21
1212.200992679661
 31
0.0
1001
AcDbBlockRepETag
1070
     1
1071
      111
1005
C39
  0
LINE
  5
C3A
330
723
100
AcDbEntity
  8
0
  6
Continuous
 62
     7
370
    15
100
AcDbLine
 10
1831.733951585318
 20
1212.200992679661
 30
0.0
 11
1831.733951585318
 21
1215.200992679661
 31
0.0
1001
AcDbBlockRepETag
1070
     1
1071
      112
1005
C3A
  0
ARC
  5
C3B
330
723
100
AcDbEntity
  8
0
  6
Continuous
 62
     7
370
    15
100
AcDbCircle
 10
1832.733951585318
 20
1215.200992679661
 30
0.0
 40
1.0
100
AcDbArc
 50
90.0
 51
180.0
1001
AcDbBlockRepETag
1070
     1
1071
      113
1005
C3B
  0
LINE
  5
C3C
330
723
100
AcDbEntity
  8
0
  6
Continuous
 62
     7
370
    15
100
AcDbLine
 10
1833.733951585318
 20
1215.200992679661
 30
0.0
 11
1833.733951585318
 21
1210.200992679661
 31
0.0
1001
AcDbBlockRepETag
1070
     1
1071
      114
1005
C3C
  0
LINE
  5
C3D
330
723
100
AcDbEntity
  8
0
  6
Continuous
 62
     7
370
    15
100
AcDbLine
 10
1833.733951585318
 20
1210.200992679661
 30
0.0
 11
1816.733951585318
 21
1210.200992679661
 31
0.0
1001
AcDbBlockRepETag
1070
     1
1071
      115
1005
C3D
  0
LINE
  5
C3E
330
723
100
AcDbEntity
  8
0
  6
Continuous
 62
     7
370
    15
100
AcDbLine
 10
1816.733951585318
 20
1210.200992679661
 30
0.0
 11
1816.733951585318
 21
1213.800992679661
 31
0.0
1001
AcDbBlockRepETag
1070
     1
1071
      116
1005
C3E
  0
ARC
  5
C3F
330
723
100
AcDbEntity
  8
0
  6
Continuous
 62
     7
370
    15
100
AcDbCircle
 10
1817.133951585318
 20
1213.800992679661
 30
0.0
 40
0.4000000000000341
100
AcDbArc
 50
90.0
 51
180.0
1001
AcDbBlockRepETag
1070
     1
1071
      117
1005
C3F
  0
LINE
  5
C40
330
723
100
AcDbEntity
  8
0
  6
Continuous
 62
     7
370
    15
100
AcDbLine
 10
1817.133951585318
 20
1214.200992679661
 30
0.0
 11
1817.333951585318
 21
1214.200992679661
 31
0.0
1001
AcDbBlockRepETag
1070
     1
1071
      118
1005
C40
  0
ARC
  5
C41
330
723
100
AcDbEntity
  8
0
  6
Continuous
 62
     7
370
    15
100
AcDbCircle
 10
1817.333951585318
 20
1214.600992679661
 30
0.0
 40
0.4000000000000057
100
AcDbArc
 50
270.0
 51
0.0
1001
AcDbBlockRepETag
1070
     1
1071
      119
1005
C41
  0
LINE
  5
C42
330
723
100
AcDbEntity
  8
0
  6
Continuous
 62
     7
370
    15
100
AcDbLine
 10
1817.733951585318
 20
1214.600992679661
 30
0.0
 11
1817.733951585318
 21
1215.300992679661
 31
0.0
1001
AcDbBlockRepETag
1070
     1
1071
      120
1005
C42
  0
ARC
  5
C43
330
723
100
AcDbEntity
  8
0
  6
Continuous
 62
     7
370
    15
100
AcDbCircle
 10
1817.333951585318
 20
1215.300992679661
 30
0.0
 40
0.4000000000000057
100
AcDbArc
 50
0.0
 51
90.0
1001
AcDbBlockRepETag
1070
     1
1071
      121
1005
C43
  0
LINE
  5
C44
330
723
100
AcDbEntity
  8
0
  6
Continuous
 62
     7
370
    15
100
AcDbLine
 10
1817.333951585318
 20
1215.700992679661
 30
0.0
 11
1817.133951585318
 21
1215.700992679661
 31
0.0
1001
AcDbBlockRepETag
1070
     1
1071
      122
1005
C44
  0
LINE
  5
C45
330
723
100
AcDbEntity
  8
0
  6
Continuous
 62
     7
370
    15
100
AcDbLine
 10
1818.133951585318
 20
1224.951277461693
 30
0.0
 11
1818.133951585318
 21
1216.700992679661
 31
0.0
1001
AcDbBlockRepETag
1070
     1
1071
      123
1005
C45
  0
LINE
  5
C46
330
723
100
AcDbEntity
  8
0
  6
Continuous
 62
     7
370
    15
100
AcDbLine
 10
1818.733951585318
 20
1216.300992679661
 30
0.0
 11
1818.733951585318
 21
1212.700992679661
 31
0.0
1001
AcDbBlockRepETag
1070
     1
1071
      124
1005
C46
  0
ARC
  5
C47
330
723
100
AcDbEntity
  8
0
  6
Continuous
 62
     7
370
    15
100
AcDbCircle
 10
1819.233951585318
 20
1212.700992679661
 30
0.0
 40
0.5000000000000569
100
AcDbArc
 50
180.0
 51
270.0
1001
AcDbBlockRepETag
1070
     1
1071
      125
1005
C47
  0
LINE
  5
C48
330
723
100
AcDbEntity
  8
0
  6
Continuous
 62
     7
370
    15
100
AcDbLine
 10
1816.733951585318
 20
1216.100992679661
 30
0.0
 11
1816.733951585318
 21
1224.933212945564
 31
0.0
1001
AcDbBlockRepETag
1070
     1
1071
      126
1005
C48
  0
ARC
  5
C49
330
723
100
AcDbEntity
  8
0
  6
Continuous
 62
     7
370
    15
100
AcDbCircle
 10
1818.333951585318
 20
1216.300992679661
 30
0.0
 40
0.4000000000000057
100
AcDbArc
 50
0.0
 51
90.0
1001
AcDbBlockRepETag
1070
     1
1071
      127
1005
C49
  0
LINE
  5
C4A
330
723
100
AcDbEntity
  8
0
  6
Continuous
 62
     7
370
    15
100
AcDbLine
 10
1818.133951585318
 20
1216.700992679661
 30
0.0
 11
1818.333951585318
 21
1216.700992679661
 31
0.0
1001
AcDbBlockRepETag
1070
     1
1071
      128
1005
C4A
  0
LINE
  5
C4B
330
723
100
AcDbEntity
  8
0
  6
Continuous
 62
     7
370
    15
100
AcDbLine
 10
1830.533951585318
 20
1225.922541553085
 30
0.0
 11
1830.533951585318
 21
1212.200992679661
 31
0.0
1001
AcDbBlockRepETag
1070
     1
1071
      129
1005
C4B
  0
ARC
  5
C4C
330
723
100
AcDbEntity
  8
0
  6
Continuous
 62
     7
370
    15
100
AcDbCircle
 10
1829.033951585318
 20
1212.700992679661
 30
0.0
 40
0.5
100
AcDbArc
 50
270.0
 51
0.0
1001
AcDbBlockRepETag
1070
     1
1071
      130
1005
C4C
  0
ARC
  5
C4D
330
723
100
AcDbEntity
  8
0
  6
Continuous
 62
     7
370
    15
100
AcDbCircle
 10
1832.733951585318
 20
1215.200992679661
 30
0.0
 40
1.0
100
AcDbArc
 50
0.0
 51
90.0
1001
AcDbBlockRepETag
1070
     1
1071
      131
1005
C4D
  0
ARC
  5
C4E
330
723
100
AcDbEntity
  8
0
  6
Continuous
 62
     7
370
    15
100
AcDbCircle
 10
1817.133951585318
 20
1216.100992679661
 30
0.0
 40
0.4000000000000341
100
AcDbArc
 50
180.0
 51
270.0
1001
AcDbBlockRepETag
1070
     1
1071
      132
1005
C4E
  0
LINE
  5
C4F
330
723
100
AcDbEntity
  8
0
  6
Continuous
 62
     8
370
    15
100
AcDbLine
 10
1850.15057825281
 20
1255.366687071563
 30
0.0
 11
1853.62435792459
 21
1255.590422033474
 31
0.0
1001
AcDbBlockRepETag
1070
     1
1071
      133
1005
C4F
  0
LINE
  5
C50
330
723
100
AcDbEntity
  8
0
  6
Continuous
 62
     8
370
    15
100
AcDbLine
 10
1846.67679858103
 20
1255.142952109652
 30
0.0
 11
1850.15057825281
 21
1255.366687071563
 31
0.0
1001
AcDbBlockRepETag
1070
     1
1071
      134
1005
C50
  0
LINE
  5
C51
330
723
100
AcDbEntity
  8
0
  6
Continuous
 62
     8
370
    15
100
AcDbLine
 10
1879.65057825281
 20
1235.566687071563
 30
0.0
 11
1883.12435792459
 21
1235.790422033474
 31
0.0
1001
AcDbBlockRepETag
1070
     1
1071
      135
1005
C51
  0
LINE
  5
C52
330
723
100
AcDbEntity
  8
0
  6
Continuous
 62
     8
370
    15
100
AcDbLine
 10
1876.17679858103
 20
1235.342952109652
 30
0.0
 11
1879.65057825281
 21
1235.566687071563
 31
0.0
1001
AcDbBlockRepETag
1070
     1
1071
      136
1005
C52
  0
LINE
  5
C53
330
723
100
AcDbEntity
  8
0
  6
Continuous
 62
     8
370
    15
100
AcDbLine
 10
1820.65057825281
 20
1275.166687071563
 30
0.0
 11
1824.12435792459
 21
1275.390422033474
 31
0.0
1001
AcDbBlockRepETag
1070
     1
1071
      137
1005
C53
  0
LINE
  5
C54
330
723
100
AcDbEntity
  8
0
  6
Continuous
 62
     8
370
    15
100
AcDbLine
 10
1817.17679858103
 20
1274.942952109652
 30
0.0
 11
1820.65057825281
 21
1275.166687071563
 31
0.0
1001
AcDbBlockRepETag
1070
     1
1071
      138
1005
C54
  0
LINE
  5
C55
330
723
100
AcDbEntity
  8
0
  6
Continuous
 62
     8
370
    15
100
AcDbLine
 10
1902.944437528705
 20
1218.095867252698
 30
0.0
 11
1906.417442293309
 21
1218.331325202841
 31
0.0
1001
AcDbBlockRepETag
1070
     1
1071
      139
1005
C55
  0
LINE
  5
C56
330
723
100
AcDbEntity
  8
0
  6
Continuous
 62
     8
370
    15
100
AcDbLine
 10
1899.4714327641
 20
1217.860409302556
 30
0.0
 11
1902.944437528705
 21
1218.095867252698
 31
0.0
1001
AcDbBlockRepETag
1070
     1
1071
      140
1005
C56
  0
LINE
  5
C57
330
723
100
AcDbEntity
  8
0
  6
Continuous
 62
     8
370
    15
100
AcDbLine
 10
1791.153140660658
 20
1294.916796278594
 30
0.0
 11
1794.626145425263
 21
1295.152254228736
 31
0.0
1001
AcDbBlockRepETag
1070
     1
1071
      141
1005
C57
  0
LINE
  5
C58
330
723
100
AcDbEntity
  8
0
  6
Continuous
 62
     8
370
    15
100
AcDbLine
 10
1787.680135896053
 20
1294.681338328451
 30
0.0
 11
1791.153140660658
 21
1294.916796278594
 31
0.0
1001
AcDbBlockRepETag
1070
     1
1071
      142
1005
C58
  0
ENDBLK
  5
725
330
723
100
AcDbEntity
  8
0
100
AcDbBlockEnd
  0
BLOCK
  5
7B7
330
7B6
100
AcDbEntity
  8
0
100
AcDbBlockBegin
  2
2
 70
     0
 10
0.0
 20
0.0
 30
0.0
  3
2
  1

  0
LINE
  5
ACC
330
7B6
100
AcDbEntity
  8
0
  6
Continuous
 62
     7
370
    15
100
AcDbLine
 10
1791.167847993977
 20
1134.785267173406
 30
0.0
 11
1791.17461212755
 21
1134.785267173406
 31
0.0
1001
AcDbBlockRepETag
1070
     1
1071
        0
1005
ACC
  0
LINE
  5
ACD
330
7B6
100
AcDbEntity
  8
0
  6
Continuous
 62
     7
370
    15
100
AcDbLine
 10
1791.17461212755
 20
1142.785267173406
 30
0.0
 11
1791.167847993976
 21
1142.785267173406
 31
0.0
1001
AcDbBlockRepETag
1070
     1
1071
        1
1005
ACD
  0
LINE
  5
ACE
330
7B6
100
AcDbEntity
  8
0
  6
Continuous
 62
     7
370
    15
100
AcDbLine
 10
1820.66455333693
 20
1134.785267173406
 30
0.0
 11
1820.670980697597
 21
1134.785267173406
 31
0.0
1001
AcDbBlockRepETag
1070
     1
1071
        2
1005
ACE
  0
LINE
  5
ACF
330
7B6
100
AcDbEntity
  8
0
  6
Continuous
 62
     7
370
    15
100
AcDbLine
 10
1820.670980697596
 20
1142.785267173406
 30
0.0
 11
1820.664553336929
 21
1142.785267173406
 31
0.0
1001
AcDbBlockRepETag
1070
     1
1071
        3
1005
ACF
  0
LINE
  5
AD0
330
7B6
100
AcDbEntity
  8
0
  6
Continuous
 62
     7
370
    15
100
AcDbLine
 10
1850.16455333693
 20
1134.785267173406
 30
0.0
 11
1850.170980697597
 21
1134.785267173406
 31
0.0
1001
AcDbBlockRepETag
1070
     1
1071
        4
1005
AD0
  0
LINE
  5
AD1
330
7B6
100
AcDbEntity
  8
0
  6
Continuous
 62
     7
370
    15
100
AcDbLine
 10
1850.170980697596
 20
1142.785267173406
 30
0.0
 11
1850.164553336929
 21
1142.785267173406
 31
0.0
1001
AcDbBlockRepETag
1070
     1
1071
        5
1005
AD1
  0
LINE
  5
AD2
330
7B6
100
AcDbEntity
  8
0
  6
Continuous
 62
     7
370
    15
100
AcDbLine
 10
1879.66455333693
 20
1134.785267173406
 30
0.0
 11
1879.670980697597
 21
1134.785267173406
 31
0.0
1001
AcDbBlockRepETag
1070
     1
1071
        6
1005
AD2
  0
LINE
  5
AD3
330
7B6
100
AcDbEntity
  8
0
  6
Continuous
 62
     7
370
    15
100
AcDbLine
 10
1879.670980697596
 20
1142.785267173406
 30
0.0
 11
1879.664553336929
 21
1142.785267173406
 31
0.0
1001
AcDbBlockRepETag
1070
     1
1071
        7
1005
AD3
  0
LINE
  5
AD4
330
7B6
100
AcDbEntity
  8
0
  6
Continuous
 62
     7
370
    15
100
AcDbLine
 10
1902.959144862024
 20
1134.785267173406
 30
0.0
 11
1902.965908995598
 21
1134.785267173406
 31
0.0
1001
AcDbBlockRepETag
1070
     1
1071
        8
1005
AD4
  0
LINE
  5
AD5
330
7B6
100
AcDbEntity
  8
0
  6
Continuous
 62
     7
370
    15
100
AcDbLine
 10
1902.965908995597
 20
1142.785267173406
 30
0.0
 11
1902.959144862023
 21
1142.785267173406
 31
0.0
1001
AcDbBlockRepETag
1070
     1
1071
        9
1005
AD5
  0
LINE
  5
AD6
330
7B6
100
AcDbEntity
  8
0
  6
Continuous
 62
     7
370
    15
100
AcDbLine
 10
1774.233951585318
 20
1128.785267173407
 30
0.0
 11
1766.433951585318
 21
1128.785267173407
 31
0.0
1001
AcDbBlockRepETag
1070
     1
1071
       10
1005
AD6
  0
LINE
  5
AD7
330
7B6
100
AcDbEntity
  8
0
  6
Continuous
 62
     7
370
    15
100
AcDbLine
 10
1766.433951585318
 20
1128.785267173407
 30
0.0
 11
1766.433951585318
 21
1148.785267173407
 31
0.0
1001
AcDbBlockRepETag
1070
     1
1071
       11
1005
AD7
  0
LINE
  5
AD8
330
7B6
100
AcDbEntity
  8
0
  6
Continuous
 62
     7
370
    15
100
AcDbLine
 10
1774.233951585318
 20
1148.785267173407
 30
0.0
 11
1766.433951585318
 21
1148.785267173407
 31
0.0
1001
AcDbBlockRepETag
1070
     1
1071
       12
1005
AD8
  0
LINE
  5
AD9
330
7B6
100
AcDbEntity
  8
0
  6
Continuous
 62
     7
370
    15
100
AcDbLine
 10
1774.233951585318
 20
1128.785267173407
 30
0.0
 11
1774.233951585318
 21
1148.785267173407
 31
0.0
1001
AcDbBlockRepETag
1070
     1
1071
       13
1005
AD9
  0
LINE
  5
ADA
330
7B6
100
AcDbEntity
  8
0
  6
Continuous
 62
     7
370
    15
100
AcDbLine
 10
1776.433951585318
 20
1128.785267173407
 30
0.0
 11
1776.433951585318
 21
1148.785267173407
 31
0.0
1001
AcDbBlockRepETag
1070
     1
1071
       14
1005
ADA
  0
LINE
  5
ADB
330
7B6
100
AcDbEntity
  8
0
  6
Continuous
 62
     7
370
    15
100
AcDbLine
 10
1776.433951585318
 20
1128.785267173407
 30
0.0
 11
1774.233951585318
 21
1128.785267173407
 31
0.0
1001
AcDbBlockRepETag
1070
     1
1071
       15
1005
ADB
  0
LINE
  5
ADC
330
7B6
100
AcDbEntity
  8
0
  6
Continuous
 62
     7
370
    15
100
AcDbLine
 10
1776.433951585318
 20
1148.785267173407
 30
0.0
 11
1774.233951585318
 21
1148.785267173407
 31
0.0
1001
AcDbBlockRepETag
1070
     1
1071
       16
1005
ADC
  0
CIRCLE
  5
ADD
330
7B6
100
AcDbEntity
  8
0
  6
Continuous
 62
     7
370
    15
100
AcDbCircle
 10
1791.154178752575
 20
1138.780009281135
 30
0.0
 40
3.475719502156497
1001
AcDbBlockRepETag
1070
     1
1071
       17
1005
ADD
  0
ARC
  5
ADE
330
7B6
100
AcDbEntity
  8
0
  6
Continuous
 62
     7
370
    15
100
AcDbCircle
 10
1790.931103318898
 20
1138.777460941988
 30
0.0
 40
3.185050677526481
100
AcDbArc
 50
193.4751825197259
 51
346.5248174802741
1001
AcDbBlockRepETag
1070
     1
1071
       18
1005
ADE
  0
LINE
  5
ADF
330
7B6
100
AcDbEntity
  8
0
  6
Continuous
 62
     7
370
    15
100
AcDbLine
 10
1794.028472562028
 20
1138.035267173407
 30
0.0
 11
1794.343082648094
 21
1138.035267173407
 31
0.0
1001
AcDbBlockRepETag
1070
     1
1071
       19
1005
ADF
  0
ARC
  5
AE0
330
7B6
100
AcDbEntity
  8
0
  6
Continuous
 62
     7
370
    15
100
AcDbCircle
 10
1791.051163595308
 20
1138.785267173407
 30
0.0
 40
3.376274729652857
100
AcDbArc
 50
347.1653420062913
 51
12.83465799370872
1001
AcDbBlockRepETag
1070
     1
1071
       20
1005
AE0
  0
ARC
  5
AE1
330
7B6
100
AcDbEntity
  8
0
  6
Continuous
 62
     7
370
    15
100
AcDbCircle
 10
1790.931103318898
 20
1138.793073404825
 30
0.0
 40
3.185050677526481
100
AcDbArc
 50
13.47518251972593
 51
166.5248174802741
1001
AcDbBlockRepETag
1070
     1
1071
       21
1005
AE1
  0
LINE
  5
AE2
330
7B6
100
AcDbEntity
  8
0
  6
Continuous
 62
     7
370
    15
100
AcDbLine
 10
1787.833734075767
 20
1139.535267173407
 30
0.0
 11
1787.789689332649
 21
1139.535267173407
 31
0.0
1001
AcDbBlockRepETag
1070
     1
1071
       22
1005
AE2
  0
ARC
  5
AE3
330
7B6
100
AcDbEntity
  8
0
  6
Continuous
 62
     7
370
    15
100
AcDbCircle
 10
1791.081608385439
 20
1138.785267173407
 30
0.0
 40
3.376274729657513
100
AcDbArc
 50
167.1653420063166
 51
192.8346579936833
1001
AcDbBlockRepETag
1070
     1
1071
       23
1005
AE3
  0
LINE
  5
AE4
330
7B6
100
AcDbEntity
  8
0
  6
Continuous
 62
     7
370
    15
100
AcDbLine
 10
1787.789689332649
 20
1138.035267173407
 30
0.0
 11
1787.833734075767
 21
1138.035267173407
 31
0.0
1001
AcDbBlockRepETag
1070
     1
1071
       24
1005
AE4
  0
LINE
  5
AE5
330
7B6
100
AcDbEntity
  8
0
  6
Continuous
 62
     7
370
    15
100
AcDbLine
 10
1794.343082648094
 20
1139.535267173407
 30
0.0
 11
1794.028472562028
 21
1139.535267173407
 31
0.0
1001
AcDbBlockRepETag
1070
     1
1071
       25
1005
AE5
  0
LINE
  5
AE6
330
7B6
100
AcDbEntity
  8
0
  6
Continuous
 62
     7
370
    15
100
AcDbLine
 10
1791.679385595486
 20
1139.535267173407
 30
0.0
 11
1791.679385595486
 21
1141.285267173407
 31
0.0
1001
AcDbBlockRepETag
1070
     1
1071
       26
1005
AE6
  0
LINE
  5
AE7
330
7B6
100
AcDbEntity
  8
0
  6
Continuous
 62
     7
370
    15
100
AcDbLine
 10
1791.679385595486
 20
1141.285267173407
 30
0.0
 11
1790.18282104231
 21
1141.285267173407
 31
0.0
1001
AcDbBlockRepETag
1070
     1
1071
       27
1005
AE7
  0
LINE
  5
AE8
330
7B6
100
AcDbEntity
  8
0
  6
Continuous
 62
     7
370
    15
100
AcDbLine
 10
1790.18282104231
 20
1141.285267173407
 30
0.0
 11
1790.18282104231
 21
1139.535267173407
 31
0.0
1001
AcDbBlockRepETag
1070
     1
1071
       28
1005
AE8
  0
LINE
  5
AE9
330
7B6
100
AcDbEntity
  8
0
  6
Continuous
 62
     7
370
    15
100
AcDbLine
 10
1790.18282104231
 20
1139.535267173407
 30
0.0
 11
1787.833734075767
 21
1139.535267173407
 31
0.0
1001
AcDbBlockRepETag
1070
     1
1071
       29
1005
AE9
  0
LINE
  5
AEA
330
7B6
100
AcDbEntity
  8
0
  6
Continuous
 62
     7
370
    15
100
AcDbLine
 10
1794.028472562028
 20
1139.535267173407
 30
0.0
 11
1791.679385595486
 21
1139.535267173407
 31
0.0
1001
AcDbBlockRepETag
1070
     1
1071
       30
1005
AEA
  0
LINE
  5
AEB
330
7B6
100
AcDbEntity
  8
0
  6
Continuous
 62
     7
370
    15
100
AcDbLine
 10
1790.18282104231
 20
1138.035267173407
 30
0.0
 11
1790.18282104231
 21
1136.285267173406
 31
0.0
1001
AcDbBlockRepETag
1070
     1
1071
       31
1005
AEB
  0
LINE
  5
AEC
330
7B6
100
AcDbEntity
  8
0
  6
Continuous
 62
     7
370
    15
100
AcDbLine
 10
1790.18282104231
 20
1136.285267173406
 30
0.0
 11
1791.679385595486
 21
1136.285267173406
 31
0.0
1001
AcDbBlockRepETag
1070
     1
1071
       32
1005
AEC
  0
LINE
  5
AED
330
7B6
100
AcDbEntity
  8
0
  6
Continuous
 62
     7
370
    15
100
AcDbLine
 10
1791.679385595486
 20
1136.285267173406
 30
0.0
 11
1791.679385595486
 21
1138.035267173407
 31
0.0
1001
AcDbBlockRepETag
1070
     1
1071
       33
1005
AED
  0
LINE
  5
AEE
330
7B6
100
AcDbEntity
  8
0
  6
Continuous
 62
     7
370
    15
100
AcDbLine
 10
1791.679385595486
 20
1138.035267173407
 30
0.0
 11
1794.028472562028
 21
1138.035267173407
 31
0.0
1001
AcDbBlockRepETag
1070
     1
1071
       34
1005
AEE
  0
LINE
  5
AEF
330
7B6
100
AcDbEntity
  8
0
  6
Continuous
 62
     7
370
    15
100
AcDbLine
 10
1787.833734075767
 20
1138.035267173407
 30
0.0
 11
1790.18282104231
 21
1138.035267173407
 31
0.0
1001
AcDbBlockRepETag
1070
     1
1071
       35
1005
AEF
  0
LINE
  5
AF0
330
7B6
100
AcDbEntity
  8
0
  6
Continuous
 62
     7
370
    15
100
AcDbLine
 10
1790.318103713783
 20
1141.285267173407
 30
0.0
 11
1790.318103713783
 21
1139.535267173407
 31
0.0
1001
AcDbBlockRepETag
1070
     1
1071
       36
1005
AF0
  0
LINE
  5
AF1
330
7B6
100
AcDbEntity
  8
0
  6
Continuous
 62
     7
370
    15
100
AcDbLine
 10
1790.318103713783
 20
1139.535267173407
 30
0.0
 11
1790.18282104231
 21
1139.535267173407
 31
0.0
1001
AcDbBlockRepETag
1070
     1
1071
       37
1005
AF1
  0
LINE
  5
AF2
330
7B6
100
AcDbEntity
  8
0
  6
Continuous
 62
     7
370
    15
100
AcDbLine
 10
1790.318103713783
 20
1138.035267173407
 30
0.0
 11
1790.318103713783
 21
1136.285267173406
 31
0.0
1001
AcDbBlockRepETag
1070
     1
1071
       38
1005
AF2
  0
LINE
  5
AF3
330
7B6
100
AcDbEntity
  8
0
  6
Continuous
 62
     7
370
    15
100
AcDbLine
 10
1790.318103713783
 20
1138.035267173407
 30
0.0
 11
1790.18282104231
 21
1138.035267173407
 31
0.0
1001
AcDbBlockRepETag
1070
     1
1071
       39
1005
AF3
  0
LINE
  5
AF4
330
7B6
100
AcDbEntity
  8
0
  6
Continuous
 62
     7
370
    15
100
AcDbLine
 10
1805.933951585318
 20
1128.785267173407
 30
0.0
 11
1805.933951585318
 21
1148.785267173407
 31
0.0
1001
AcDbBlockRepETag
1070
     1
1071
       40
1005
AF4
  0
CIRCLE
  5
AF5
330
7B6
100
AcDbEntity
  8
0
  6
Continuous
 62
     7
370
    15
100
AcDbCircle
 10
1791.174174296341
 20
1138.786333020617
 30
0.0
 40
3.997165252939607
1001
AcDbBlockRepETag
1070
     1
1071
       41
1005
AF5
  0
LINE
  5
AF6
330
7B6
100
AcDbEntity
  8
0
  6
Continuous
 62
     7
370
    15
100
AcDbLine
 10
1805.933951585318
 20
1128.785267173407
 30
0.0
 11
1776.433951585318
 21
1128.785267173407
 31
0.0
1001
AcDbBlockRepETag
1070
     1
1071
       42
1005
AF6
  0
LINE
  5
AF7
330
7B6
100
AcDbEntity
  8
0
  6
Continuous
 62
     7
370
    15
100
AcDbLine
 10
1805.933951585318
 20
1148.785267173407
 30
0.0
 11
1776.433951585318
 21
1148.785267173407
 31
0.0
1001
AcDbBlockRepETag
1070
     1
1071
       43
1005
AF7
  0
ARC
  5
AF8
330
7B6
100
AcDbEntity
  8
0
  6
Continuous
 62
     7
370
    15
100
AcDbCircle
 10
1791.181480000925
 20
1138.785267173407
 30
0.0
 40
4.000005895956241
100
AcDbArc
 50
90.09837494298045
 51
269.9016250570196
1001
AcDbBlockRepETag
1070
     1
1071
       44
1005
AF8
  0
CIRCLE
  5
AF9
330
7B6
100
AcDbEntity
  8
0
  6
Continuous
 62
     7
370
    15
100
AcDbCircle
 10
1820.651515339804
 20
1138.780519807848
 30
0.0
 40
3.476230000150938
1001
AcDbBlockRepETag
1070
     1
1071
       45
1005
AF9
  0
ARC
  5
AFA
330
7B6
100
AcDbEntity
  8
0
  6
Continuous
 62
     7
370
    15
100
AcDbCircle
 10
1820.439595713586
 20
1138.778218905343
 30
0.0
 40
3.185899422468709
100
AcDbArc
 50
193.4855424071484
 51
346.5144575928516
1001
AcDbBlockRepETag
1070
     1
1071
       46
1005
AFA
  0
LINE
  5
AFB
330
7B6
100
AcDbEntity
  8
0
  6
Continuous
 62
     7
370
    15
100
AcDbLine
 10
1823.537656050974
 20
1138.035267173407
 30
0.0
 11
1823.845570690973
 21
1138.035267173407
 31
0.0
1001
AcDbBlockRepETag
1070
     1
1071
       47
1005
AFB
  0
ARC
  5
AFC
330
7B6
100
AcDbEntity
  8
0
  6
Continuous
 62
     7
370
    15
100
AcDbCircle
 10
1820.554401650068
 20
1138.785267173407
 30
0.0
 40
3.37554346080967
100
AcDbArc
 50
347.1625140639161
 51
12.83748593608391
1001
AcDbBlockRepETag
1070
     1
1071
       48
1005
AFC
  0
ARC
  5
AFD
330
7B6
100
AcDbEntity
  8
0
  6
Continuous
 62
     7
370
    15
100
AcDbCircle
 10
1820.439595713586
 20
1138.792315441471
 30
0.0
 40
3.185899422468709
100
AcDbArc
 50
13.48554240714839
 51
166.5144575928516
1001
AcDbBlockRepETag
1070
     1
1071
       49
1005
AFD
  0
LINE
  5
AFE
330
7B6
100
AcDbEntity
  8
0
  6
Continuous
 62
     7
370
    15
100
AcDbLine
 10
1817.341535376198
 20
1139.535267173407
 30
0.0
 11
1817.290715162877
 21
1139.535267173407
 31
0.0
1001
AcDbBlockRepETag
1070
     1
1071
       50
1005
AFE
  0
ARC
  5
AFF
330
7B6
100
AcDbEntity
  8
0
  6
Continuous
 62
     7
370
    15
100
AcDbCircle
 10
1820.581884203783
 20
1138.785267173407
 30
0.0
 40
3.375543460809615
100
AcDbArc
 50
167.1625140639161
 51
192.8374859360839
1001
AcDbBlockRepETag
1070
     1
1071
       51
1005
AFF
  0
LINE
  5
B00
330
7B6
100
AcDbEntity
  8
0
  6
Continuous
 62
     7
370
    15
100
AcDbLine
 10
1817.290715162877
 20
1138.035267173407
 30
0.0
 11
1817.341535376198
 21
1138.035267173407
 31
0.0
1001
AcDbBlockRepETag
1070
     1
1071
       52
1005
B00
  0
LINE
  5
B01
330
7B6
100
AcDbEntity
  8
0
  6
Continuous
 62
     7
370
    15
100
AcDbLine
 10
1823.845570690973
 20
1139.535267173407
 30
0.0
 11
1823.537656050974
 21
1139.535267173407
 31
0.0
1001
AcDbBlockRepETag
1070
     1
1071
       53
1005
B01
  0
LINE
  5
B02
330
7B6
100
AcDbEntity
  8
0
  6
Continuous
 62
     7
370
    15
100
AcDbLine
 10
1821.188044949146
 20
1139.535267173407
 30
0.0
 11
1821.188044949146
 21
1141.285267173407
 31
0.0
1001
AcDbBlockRepETag
1070
     1
1071
       54
1005
B02
  0
LINE
  5
B03
330
7B6
100
AcDbEntity
  8
0
  6
Continuous
 62
     7
370
    15
100
AcDbLine
 10
1821.188044949146
 20
1141.285267173407
 30
0.0
 11
1819.691146478026
 21
1141.285267173407
 31
0.0
1001
AcDbBlockRepETag
1070
     1
1071
       55
1005
B03
  0
LINE
  5
B04
330
7B6
100
AcDbEntity
  8
0
  6
Continuous
 62
     7
370
    15
100
AcDbLine
 10
1819.691146478026
 20
1141.285267173407
 30
0.0
 11
1819.691146478026
 21
1139.535267173407
 31
0.0
1001
AcDbBlockRepETag
1070
     1
1071
       56
1005
B04
  0
LINE
  5
B05
330
7B6
100
AcDbEntity
  8
0
  6
Continuous
 62
     7
370
    15
100
AcDbLine
 10
1819.691146478026
 20
1139.535267173407
 30
0.0
 11
1817.341535376198
 21
1139.535267173407
 31
0.0
1001
AcDbBlockRepETag
1070
     1
1071
       57
1005
B05
  0
LINE
  5
B06
330
7B6
100
AcDbEntity
  8
0
  6
Continuous
 62
     7
370
    15
100
AcDbLine
 10
1823.537656050974
 20
1139.535267173407
 30
0.0
 11
1821.188044949146
 21
1139.535267173407
 31
0.0
1001
AcDbBlockRepETag
1070
     1
1071
       58
1005
B06
  0
LINE
  5
B07
330
7B6
100
AcDbEntity
  8
0
  6
Continuous
 62
     7
370
    15
100
AcDbLine
 10
1819.691146478026
 20
1138.035267173407
 30
0.0
 11
1819.691146478026
 21
1136.285267173406
 31
0.0
1001
AcDbBlockRepETag
1070
     1
1071
       59
1005
B07
  0
LINE
  5
B08
330
7B6
100
AcDbEntity
  8
0
  6
Continuous
 62
     7
370
    15
100
AcDbLine
 10
1819.691146478026
 20
1136.285267173406
 30
0.0
 11
1821.188044949146
 21
1136.285267173406
 31
0.0
1001
AcDbBlockRepETag
1070
     1
1071
       60
1005
B08
  0
LINE
  5
B09
330
7B6
100
AcDbEntity
  8
0
  6
Continuous
 62
     7
370
    15
100
AcDbLine
 10
1821.188044949146
 20
1136.285267173406
 30
0.0
 11
1821.188044949146
 21
1138.035267173407
 31
0.0
1001
AcDbBlockRepETag
1070
     1
1071
       61
1005
B09
  0
LINE
  5
B0A
330
7B6
100
AcDbEntity
  8
0
  6
Continuous
 62
     7
370
    15
100
AcDbLine
 10
1821.188044949146
 20
1138.035267173407
 30
0.0
 11
1823.537656050974
 21
1138.035267173407
 31
0.0
1001
AcDbBlockRepETag
1070
     1
1071
       62
1005
B0A
  0
LINE
  5
B0B
330
7B6
100
AcDbEntity
  8
0
  6
Continuous
 62
     7
370
    15
100
AcDbLine
 10
1817.341535376198
 20
1138.035267173407
 30
0.0
 11
1819.691146478026
 21
1138.035267173407
 31
0.0
1001
AcDbBlockRepETag
1070
     1
1071
       63
1005
B0B
  0
LINE
  5
B0C
330
7B6
100
AcDbEntity
  8
0
  6
Continuous
 62
     7
370
    15
100
AcDbLine
 10
1819.819693691365
 20
1141.285267173407
 30
0.0
 11
1819.819693691365
 21
1139.535267173407
 31
0.0
1001
AcDbBlockRepETag
1070
     1
1071
       64
1005
B0C
  0
LINE
  5
B0D
330
7B6
100
AcDbEntity
  8
0
  6
Continuous
 62
     7
370
    15
100
AcDbLine
 10
1819.819693691365
 20
1139.535267173407
 30
0.0
 11
1819.691146478026
 21
1139.535267173407
 31
0.0
1001
AcDbBlockRepETag
1070
     1
1071
       65
1005
B0D
  0
LINE
  5
B0E
330
7B6
100
AcDbEntity
  8
0
  6
Continuous
 62
     7
370
    15
100
AcDbLine
 10
1819.819693691365
 20
1138.035267173407
 30
0.0
 11
1819.691146478026
 21
1138.035267173407
 31
0.0
1001
AcDbBlockRepETag
1070
     1
1071
       66
1005
B0E
  0
LINE
  5
B0F
330
7B6
100
AcDbEntity
  8
0
  6
Continuous
 62
     7
370
    15
100
AcDbLine
 10
1819.819693691365
 20
1138.035267173407
 30
0.0
 11
1819.819693691365
 21
1136.285267173406
 31
0.0
1001
AcDbBlockRepETag
1070
     1
1071
       67
1005
B0F
  0
LINE
  5
B10
330
7B6
100
AcDbEntity
  8
0
  6
Continuous
 62
     7
370
    15
100
AcDbLine
 10
1835.433951585318
 20
1128.785267173407
 30
0.0
 11
1835.433951585318
 21
1148.785267173407
 31
0.0
1001
AcDbBlockRepETag
1070
     1
1071
       68
1005
B10
  0
CIRCLE
  5
B11
330
7B6
100
AcDbEntity
  8
0
  6
Continuous
 62
     7
370
    15
100
AcDbCircle
 10
1820.670264098731
 20
1138.786229529818
 30
0.0
 40
3.997440133963454
1001
AcDbBlockRepETag
1070
     1
1071
       69
1005
B11
  0
LINE
  5
B12
330
7B6
100
AcDbEntity
  8
0
  6
Continuous
 62
     7
370
    15
100
AcDbLine
 10
1835.433951585318
 20
1128.785267173407
 30
0.0
 11
1805.933951585318
 21
1128.785267173407
 31
0.0
1001
AcDbBlockRepETag
1070
     1
1071
       70
1005
B12
  0
LINE
  5
B13
330
7B6
100
AcDbEntity
  8
0
  6
Continuous
 62
     7
370
    15
100
AcDbLine
 10
1835.433951585318
 20
1148.785267173407
 30
0.0
 11
1805.933951585318
 21
1148.785267173407
 31
0.0
1001
AcDbBlockRepETag
1070
     1
1071
       71
1005
B13
  0
ARC
  5
B14
330
7B6
100
AcDbEntity
  8
0
  6
Continuous
 62
     7
370
    15
100
AcDbCircle
 10
1820.67718033629
 20
1138.785267173407
 30
0.0
 40
4.000004804437134
100
AcDbArc
 50
90.0888032118017
 51
269.9111967881983
1001
AcDbBlockRepETag
1070
     1
1071
       72
1005
B14
  0
CIRCLE
  5
B15
330
7B6
100
AcDbEntity
  8
0
  6
Continuous
 62
     7
370
    15
100
AcDbCircle
 10
1850.151515339804
 20
1138.780519807848
 30
0.0
 40
3.476230000151138
1001
AcDbBlockRepETag
1070
     1
1071
       73
1005
B15
  0
ARC
  5
B16
330
7B6
100
AcDbEntity
  8
0
  6
Continuous
 62
     7
370
    15
100
AcDbCircle
 10
1849.939595713586
 20
1138.778218905343
 30
0.0
 40
3.185899422468784
100
AcDbArc
 50
193.4855424071484
 51
346.5144575928516
1001
AcDbBlockRepETag
1070
     1
1071
       74
1005
B16
  0
LINE
  5
B17
330
7B6
100
AcDbEntity
  8
0
  6
Continuous
 62
     7
370
    15
100
AcDbLine
 10
1853.037656050975
 20
1138.035267173407
 30
0.0
 11
1853.345570690973
 21
1138.035267173407
 31
0.0
1001
AcDbBlockRepETag
1070
     1
1071
       75
1005
B17
  0
ARC
  5
B18
330
7B6
100
AcDbEntity
  8
0
  6
Continuous
 62
     7
370
    15
100
AcDbCircle
 10
1850.054401650069
 20
1138.785267173407
 30
0.0
 40
3.375543460808839
100
AcDbArc
 50
347.1625140639161
 51
12.83748593608391
1001
AcDbBlockRepETag
1070
     1
1071
       76
1005
B18
  0
LINE
  5
B19
330
7B6
100
AcDbEntity
  8
0
  6
Continuous
 62
     7
370
    15
100
AcDbLine
 10
1853.345570690973
 20
1139.535267173407
 30
0.0
 11
1853.037656050975
 21
1139.535267173407
 31
0.0
1001
AcDbBlockRepETag
1070
     1
1071
       77
1005
B19
  0
ARC
  5
B1A
330
7B6
100
AcDbEntity
  8
0
  6
Continuous
 62
     7
370
    15
100
AcDbCircle
 10
1849.939595713586
 20
1138.79231544147
 30
0.0
 40
3.185899422468771
100
AcDbArc
 50
13.48554240714839
 51
166.5144575928516
1001
AcDbBlockRepETag
1070
     1
1071
       78
1005
B1A
  0
LINE
  5
B1B
330
7B6
100
AcDbEntity
  8
0
  6
Continuous
 62
     7
370
    15
100
AcDbLine
 10
1846.841535376197
 20
1139.535267173407
 30
0.0
 11
1846.790715162877
 21
1139.535267173407
 31
0.0
1001
AcDbBlockRepETag
1070
     1
1071
       79
1005
B1B
  0
ARC
  5
B1C
330
7B6
100
AcDbEntity
  8
0
  6
Continuous
 62
     7
370
    15
100
AcDbCircle
 10
1850.081884203782
 20
1138.785267173407
 30
0.0
 40
3.375543460808565
100
AcDbArc
 50
167.1625140639161
 51
192.8374859360966
1001
AcDbBlockRepETag
1070
     1
1071
       80
1005
B1C
  0
LINE
  5
B1D
330
7B6
100
AcDbEntity
  8
0
  6
Continuous
 62
     7
370
    15
100
AcDbLine
 10
1846.790715162877
 20
1138.035267173407
 30
0.0
 11
1846.841535376197
 21
1138.035267173407
 31
0.0
1001
AcDbBlockRepETag
1070
     1
1071
       81
1005
B1D
  0
LINE
  5
B1E
330
7B6
100
AcDbEntity
  8
0
  6
Continuous
 62
     7
370
    15
100
AcDbLine
 10
1853.037656050975
 20
1139.535267173407
 30
0.0
 11
1850.688044949146
 21
1139.535267173407
 31
0.0
1001
AcDbBlockRepETag
1070
     1
1071
       82
1005
B1E
  0
LINE
  5
B1F
330
7B6
100
AcDbEntity
  8
0
  6
Continuous
 62
     7
370
    15
100
AcDbLine
 10
1850.688044949146
 20
1139.535267173407
 30
0.0
 11
1850.688044949146
 21
1141.285267173407
 31
0.0
1001
AcDbBlockRepETag
1070
     1
1071
       83
1005
B1F
  0
LINE
  5
B20
330
7B6
100
AcDbEntity
  8
0
  6
Continuous
 62
     7
370
    15
100
AcDbLine
 10
1850.688044949146
 20
1141.285267173407
 30
0.0
 11
1849.191146478026
 21
1141.285267173407
 31
0.0
1001
AcDbBlockRepETag
1070
     1
1071
       84
1005
B20
  0
LINE
  5
B21
330
7B6
100
AcDbEntity
  8
0
  6
Continuous
 62
     7
370
    15
100
AcDbLine
 10
1849.191146478026
 20
1141.285267173407
 30
0.0
 11
1849.191146478026
 21
1139.535267173407
 31
0.0
1001
AcDbBlockRepETag
1070
     1
1071
       85
1005
B21
  0
LINE
  5
B22
330
7B6
100
AcDbEntity
  8
0
  6
Continuous
 62
     7
370
    15
100
AcDbLine
 10
1849.191146478026
 20
1139.535267173407
 30
0.0
 11
1846.841535376197
 21
1139.535267173407
 31
0.0
1001
AcDbBlockRepETag
1070
     1
1071
       86
1005
B22
  0
LINE
  5
B23
330
7B6
100
AcDbEntity
  8
0
  6
Continuous
 62
     7
370
    15
100
AcDbLine
 10
1849.191146478026
 20
1138.035267173407
 30
0.0
 11
1849.191146478026
 21
1136.285267173406
 31
0.0
1001
AcDbBlockRepETag
1070
     1
1071
       87
1005
B23
  0
LINE
  5
B24
330
7B6
100
AcDbEntity
  8
0
  6
Continuous
 62
     7
370
    15
100
AcDbLine
 10
1849.191146478026
 20
1136.285267173406
 30
0.0
 11
1850.688044949146
 21
1136.285267173406
 31
0.0
1001
AcDbBlockRepETag
1070
     1
1071
       88
1005
B24
  0
LINE
  5
B25
330
7B6
100
AcDbEntity
  8
0
  6
Continuous
 62
     7
370
    15
100
AcDbLine
 10
1850.688044949146
 20
1136.285267173406
 30
0.0
 11
1850.688044949146
 21
1138.035267173407
 31
0.0
1001
AcDbBlockRepETag
1070
     1
1071
       89
1005
B25
  0
LINE
  5
B26
330
7B6
100
AcDbEntity
  8
0
  6
Continuous
 62
     7
370
    15
100
AcDbLine
 10
1850.688044949146
 20
1138.035267173407
 30
0.0
 11
1853.037656050975
 21
1138.035267173407
 31
0.0
1001
AcDbBlockRepETag
1070
     1
1071
       90
1005
B26
  0
LINE
  5
B27
330
7B6
100
AcDbEntity
  8
0
  6
Continuous
 62
     7
370
    15
100
AcDbLine
 10
1846.841535376197
 20
1138.035267173407
 30
0.0
 11
1849.191146478026
 21
1138.035267173407
 31
0.0
1001
AcDbBlockRepETag
1070
     1
1071
       91
1005
B27
  0
LINE
  5
B28
330
7B6
100
AcDbEntity
  8
0
  6
Continuous
 62
     7
370
    15
100
AcDbLine
 10
1849.319693691365
 20
1141.285267173407
 30
0.0
 11
1849.319693691365
 21
1139.535267173407
 31
0.0
1001
AcDbBlockRepETag
1070
     1
1071
       92
1005
B28
  0
LINE
  5
B29
330
7B6
100
AcDbEntity
  8
0
  6
Continuous
 62
     7
370
    15
100
AcDbLine
 10
1849.319693691365
 20
1139.535267173407
 30
0.0
 11
1849.191146478026
 21
1139.535267173407
 31
0.0
1001
AcDbBlockRepETag
1070
     1
1071
       93
1005
B29
  0
LINE
  5
B2A
330
7B6
100
AcDbEntity
  8
0
  6
Continuous
 62
     7
370
    15
100
AcDbLine
 10
1849.319693691365
 20
1138.035267173407
 30
0.0
 11
1849.319693691365
 21
1136.285267173406
 31
0.0
1001
AcDbBlockRepETag
1070
     1
1071
       94
1005
B2A
  0
LINE
  5
B2B
330
7B6
100
AcDbEntity
  8
0
  6
Continuous
 62
     7
370
    15
100
AcDbLine
 10
1849.319693691365
 20
1138.035267173407
 30
0.0
 11
1849.191146478026
 21
1138.035267173407
 31
0.0
1001
AcDbBlockRepETag
1070
     1
1071
       95
1005
B2B
  0
CIRCLE
  5
B2C
330
7B6
100
AcDbEntity
  8
0
  6
Continuous
 62
     7
370
    15
100
AcDbCircle
 10
1850.170264098731
 20
1138.786229529818
 30
0.0
 40
3.997440133963454
1001
AcDbBlockRepETag
1070
     1
1071
       96
1005
B2C
  0
LINE
  5
B2D
330
7B6
100
AcDbEntity
  8
0
  6
Continuous
 62
     7
370
    15
100
AcDbLine
 10
1864.933951585318
 20
1128.785267173407
 30
0.0
 11
1864.933951585318
 21
1148.785267173407
 31
0.0
1001
AcDbBlockRepETag
1070
     1
1071
       97
1005
B2D
  0
LINE
  5
B2E
330
7B6
100
AcDbEntity
  8
0
  6
Continuous
 62
     7
370
    15
100
AcDbLine
 10
1864.933951585318
 20
1128.785267173407
 30
0.0
 11
1835.433951585318
 21
1128.785267173407
 31
0.0
1001
AcDbBlockRepETag
1070
     1
1071
       98
1005
B2E
  0
LINE
  5
B2F
330
7B6
100
AcDbEntity
  8
0
  6
Continuous
 62
     7
370
    15
100
AcDbLine
 10
1864.933951585318
 20
1148.785267173407
 30
0.0
 11
1835.433951585318
 21
1148.785267173407
 31
0.0
1001
AcDbBlockRepETag
1070
     1
1071
       99
1005
B2F
  0
ARC
  5
B30
330
7B6
100
AcDbEntity
  8
0
  6
Continuous
 62
     7
370
    15
100
AcDbCircle
 10
1850.177180336291
 20
1138.785267173407
 30
0.0
 40
4.00000480443712
100
AcDbArc
 50
90.0888032118017
 51
269.9111967881983
1001
AcDbBlockRepETag
1070
     1
1071
      100
1005
B30
  0
CIRCLE
  5
B31
330
7B6
100
AcDbEntity
  8
0
  6
Continuous
 62
     7
370
    15
100
AcDbCircle
 10
1879.651515339804
 20
1138.780519807848
 30
0.0
 40
3.476230000150996
1001
AcDbBlockRepETag
1070
     1
1071
      101
1005
B31
  0
ARC
  5
B32
330
7B6
100
AcDbEntity
  8
0
  6
Continuous
 62
     7
370
    15
100
AcDbCircle
 10
1879.439595713586
 20
1138.778218905342
 30
0.0
 40
3.185899422468637
100
AcDbArc
 50
193.4855424071484
 51
346.5144575928643
1001
AcDbBlockRepETag
1070
     1
1071
      102
1005
B32
  0
LINE
  5
B33
330
7B6
100
AcDbEntity
  8
0
  6
Continuous
 62
     7
370
    15
100
AcDbLine
 10
1882.537656050974
 20
1138.035267173407
 30
0.0
 11
1882.845570690973
 21
1138.035267173407
 31
0.0
1001
AcDbBlockRepETag
1070
     1
1071
      103
1005
B33
  0
ARC
  5
B34
330
7B6
100
AcDbEntity
  8
0
  6
Continuous
 62
     7
370
    15
100
AcDbCircle
 10
1879.55440165007
 20
1138.785267173407
 30
0.0
 40
3.375543460806899
100
AcDbArc
 50
347.1625140639034
 51
12.83748593609661
1001
AcDbBlockRepETag
1070
     1
1071
      104
1005
B34
  0
LINE
  5
B35
330
7B6
100
AcDbEntity
  8
0
  6
Continuous
 62
     7
370
    15
100
AcDbLine
 10
1882.845570690973
 20
1139.535267173407
 30
0.0
 11
1882.537656050974
 21
1139.535267173407
 31
0.0
1001
AcDbBlockRepETag
1070
     1
1071
      105
1005
B35
  0
ARC
  5
B36
330
7B6
100
AcDbEntity
  8
0
  6
Continuous
 62
     7
370
    15
100
AcDbCircle
 10
1879.439595713586
 20
1138.792315441471
 30
0.0
 40
3.18589942246864
100
AcDbArc
 50
13.48554240714839
 51
166.5144575928516
1001
AcDbBlockRepETag
1070
     1
1071
      106
1005
B36
  0
LINE
  5
B37
330
7B6
100
AcDbEntity
  8
0
  6
Continuous
 62
     7
370
    15
100
AcDbLine
 10
1876.341535376198
 20
1139.535267173407
 30
0.0
 11
1876.290715162877
 21
1139.535267173407
 31
0.0
1001
AcDbBlockRepETag
1070
     1
1071
      107
1005
B37
  0
ARC
  5
B38
330
7B6
100
AcDbEntity
  8
0
  6
Continuous
 62
     7
370
    15
100
AcDbCircle
 10
1879.581884203782
 20
1138.785267173407
 30
0.0
 40
3.375543460808676
100
AcDbArc
 50
167.1625140639161
 51
192.8374859360839
1001
AcDbBlockRepETag
1070
     1
1071
      108
1005
B38
  0
LINE
  5
B39
330
7B6
100
AcDbEntity
  8
0
  6
Continuous
 62
     7
370
    15
100
AcDbLine
 10
1876.290715162877
 20
1138.035267173407
 30
0.0
 11
1876.341535376198
 21
1138.035267173407
 31
0.0
1001
AcDbBlockRepETag
1070
     1
1071
      109
1005
B39
  0
LINE
  5
B3A
330
7B6
100
AcDbEntity
  8
0
  6
Continuous
 62
     7
370
    15
100
AcDbLine
 10
1882.537656050974
 20
1139.535267173407
 30
0.0
 11
1880.188044949146
 21
1139.535267173407
 31
0.0
1001
AcDbBlockRepETag
1070
     1
1071
      110
1005
B3A
  0
LINE
  5
B3B
330
7B6
100
AcDbEntity
  8
0
  6
Continuous
 62
     7
370
    15
100
AcDbLine
 10
1880.188044949146
 20
1139.535267173407
 30
0.0
 11
1880.188044949146
 21
1141.285267173407
 31
0.0
1001
AcDbBlockRepETag
1070
     1
1071
      111
1005
B3B
  0
LINE
  5
B3C
330
7B6
100
AcDbEntity
  8
0
  6
Continuous
 62
     7
370
    15
100
AcDbLine
 10
1880.188044949146
 20
1141.285267173407
 30
0.0
 11
1878.691146478026
 21
1141.285267173407
 31
0.0
1001
AcDbBlockRepETag
1070
     1
1071
      112
1005
B3C
  0
LINE
  5
B3D
330
7B6
100
AcDbEntity
  8
0
  6
Continuous
 62
     7
370
    15
100
AcDbLine
 10
1878.691146478026
 20
1141.285267173407
 30
0.0
 11
1878.691146478026
 21
1139.535267173407
 31
0.0
1001
AcDbBlockRepETag
1070
     1
1071
      113
1005
B3D
  0
LINE
  5
B3E
330
7B6
100
AcDbEntity
  8
0
  6
Continuous
 62
     7
370
    15
100
AcDbLine
 10
1878.691146478026
 20
1139.535267173407
 30
0.0
 11
1876.341535376198
 21
1139.535267173407
 31
0.0
1001
AcDbBlockRepETag
1070
     1
1071
      114
1005
B3E
  0
LINE
  5
B3F
330
7B6
100
AcDbEntity
  8
0
  6
Continuous
 62
     7
370
    15
100
AcDbLine
 10
1878.691146478026
 20
1138.035267173407
 30
0.0
 11
1878.691146478026
 21
1136.285267173406
 31
0.0
1001
AcDbBlockRepETag
1070
     1
1071
      115
1005
B3F
  0
LINE
  5
B40
330
7B6
100
AcDbEntity
  8
0
  6
Continuous
 62
     7
370
    15
100
AcDbLine
 10
1878.691146478026
 20
1136.285267173406
 30
0.0
 11
1880.188044949146
 21
1136.285267173406
 31
0.0
1001
AcDbBlockRepETag
1070
     1
1071
      116
1005
B40
  0
LINE
  5
B41
330
7B6
100
AcDbEntity
  8
0
  6
Continuous
 62
     7
370
    15
100
AcDbLine
 10
1880.188044949146
 20
1136.285267173406
 30
0.0
 11
1880.188044949146
 21
1138.035267173407
 31
0.0
1001
AcDbBlockRepETag
1070
     1
1071
      117
1005
B41
  0
LINE
  5
B42
330
7B6
100
AcDbEntity
  8
0
  6
Continuous
 62
     7
370
    15
100
AcDbLine
 10
1880.188044949146
 20
1138.035267173407
 30
0.0
 11
1882.537656050974
 21
1138.035267173407
 31
0.0
1001
AcDbBlockRepETag
1070
     1
1071
      118
1005
B42
  0
LINE
  5
B43
330
7B6
100
AcDbEntity
  8
0
  6
Continuous
 62
     7
370
    15
100
AcDbLine
 10
1876.341535376198
 20
1138.035267173407
 30
0.0
 11
1878.691146478026
 21
1138.035267173407
 31
0.0
1001
AcDbBlockRepETag
1070
     1
1071
      119
1005
B43
  0
LINE
  5
B44
330
7B6
100
AcDbEntity
  8
0
  6
Continuous
 62
     7
370
    15
100
AcDbLine
 10
1878.819693691365
 20
1141.285267173407
 30
0.0
 11
1878.819693691365
 21
1139.535267173407
 31
0.0
1001
AcDbBlockRepETag
1070
     1
1071
      120
1005
B44
  0
LINE
  5
B45
330
7B6
100
AcDbEntity
  8
0
  6
Continuous
 62
     7
370
    15
100
AcDbLine
 10
1878.819693691365
 20
1139.535267173407
 30
0.0
 11
1878.691146478026
 21
1139.535267173407
 31
0.0
1001
AcDbBlockRepETag
1070
     1
1071
      121
1005
B45
  0
LINE
  5
B46
330
7B6
100
AcDbEntity
  8
0
  6
Continuous
 62
     7
370
    15
100
AcDbLine
 10
1878.819693691365
 20
1138.035267173407
 30
0.0
 11
1878.691146478026
 21
1138.035267173407
 31
0.0
1001
AcDbBlockRepETag
1070
     1
1071
      122
1005
B46
  0
LINE
  5
B47
330
7B6
100
AcDbEntity
  8
0
  6
Continuous
 62
     7
370
    15
100
AcDbLine
 10
1878.819693691365
 20
1138.035267173407
 30
0.0
 11
1878.819693691365
 21
1136.285267173406
 31
0.0
1001
AcDbBlockRepETag
1070
     1
1071
      123
1005
B47
  0
LINE
  5
B48
330
7B6
100
AcDbEntity
  8
0
  6
Continuous
 62
     7
370
    15
100
AcDbLine
 10
1894.433951585318
 20
1128.785267173407
 30
0.0
 11
1894.433951585318
 21
1148.785267173407
 31
0.0
1001
AcDbBlockRepETag
1070
     1
1071
      124
1005
B48
  0
CIRCLE
  5
B49
330
7B6
100
AcDbEntity
  8
0
  6
Continuous
 62
     7
370
    15
100
AcDbCircle
 10
1879.670264098731
 20
1138.786229529817
 30
0.0
 40
3.997440133963397
1001
AcDbBlockRepETag
1070
     1
1071
      125
1005
B49
  0
LINE
  5
B4A
330
7B6
100
AcDbEntity
  8
0
  6
Continuous
 62
     7
370
    15
100
AcDbLine
 10
1894.433951585318
 20
1128.785267173407
 30
0.0
 11
1864.933951585318
 21
1128.785267173407
 31
0.0
1001
AcDbBlockRepETag
1070
     1
1071
      126
1005
B4A
  0
LINE
  5
B4B
330
7B6
100
AcDbEntity
  8
0
  6
Continuous
 62
     7
370
    15
100
AcDbLine
 10
1894.433951585318
 20
1148.785267173407
 30
0.0
 11
1864.933951585318
 21
1148.785267173407
 31
0.0
1001
AcDbBlockRepETag
1070
     1
1071
      127
1005
B4B
  0
ARC
  5
B4C
330
7B6
100
AcDbEntity
  8
0
  6
Continuous
 62
     7
370
    15
100
AcDbCircle
 10
1879.67718033629
 20
1138.785267173407
 30
0.0
 40
4.000004804437121
100
AcDbArc
 50
90.0888032118017
 51
269.9111967881983
1001
AcDbBlockRepETag
1070
     1
1071
      128
1005
B4C
  0
CIRCLE
  5
B4D
330
7B6
100
AcDbEntity
  8
0
  6
Continuous
 62
     7
370
    15
100
AcDbCircle
 10
1902.945475620622
 20
1138.780009281135
 30
0.0
 40
3.475719502156469
1001
AcDbBlockRepETag
1070
     1
1071
      129
1005
B4D
  0
ARC
  5
B4E
330
7B6
100
AcDbEntity
  8
0
  6
Continuous
 62
     7
370
    15
100
AcDbCircle
 10
1902.722400186945
 20
1138.777460941988
 30
0.0
 40
3.185050677526537
100
AcDbArc
 50
193.4751825197259
 51
346.5248174802741
1001
AcDbBlockRepETag
1070
     1
1071
      130
1005
B4E
  0
LINE
  5
B4F
330
7B6
100
AcDbEntity
  8
0
  6
Continuous
 62
     7
370
    15
100
AcDbLine
 10
1905.819769430075
 20
1138.035267173407
 30
0.0
 11
1906.134379516141
 21
1138.035267173407
 31
0.0
1001
AcDbBlockRepETag
1070
     1
1071
      131
1005
B4F
  0
ARC
  5
B50
330
7B6
100
AcDbEntity
  8
0
  6
Continuous
 62
     7
370
    15
100
AcDbCircle
 10
1902.842460463354
 20
1138.785267173407
 30
0.0
 40
3.376274729654797
100
AcDbArc
 50
347.165342006304
 51
12.83465799369602
1001
AcDbBlockRepETag
1070
     1
1071
      132
1005
B50
  0
LINE
  5
B51
330
7B6
100
AcDbEntity
  8
0
  6
Continuous
 62
     7
370
    15
100
AcDbLine
 10
1906.134379516141
 20
1139.535267173407
 30
0.0
 11
1905.819769430075
 21
1139.535267173407
 31
0.0
1001
AcDbBlockRepETag
1070
     1
1071
      133
1005
B51
  0
ARC
  5
B52
330
7B6
100
AcDbEntity
  8
0
  6
Continuous
 62
     7
370
    15
100
AcDbCircle
 10
1902.722400186945
 20
1138.793073404825
 30
0.0
 40
3.185050677526563
100
AcDbArc
 50
13.47518251972593
 51
166.5248174802741
1001
AcDbBlockRepETag
1070
     1
1071
      134
1005
B52
  0
LINE
  5
B53
330
7B6
100
AcDbEntity
  8
0
  6
Continuous
 62
     7
370
    15
100
AcDbLine
 10
1899.625030943814
 20
1139.535267173407
 30
0.0
 11
1899.580986200696
 21
1139.535267173407
 31
0.0
1001
AcDbBlockRepETag
1070
     1
1071
      135
1005
B53
  0
ARC
  5
B54
330
7B6
100
AcDbEntity
  8
0
  6
Continuous
 62
     7
370
    15
100
AcDbCircle
 10
1902.872905253482
 20
1138.785267173407
 30
0.0
 40
3.376274729653578
100
AcDbArc
 50
167.1653420063039
 51
192.834657993696
1001
AcDbBlockRepETag
1070
     1
1071
      136
1005
B54
  0
LINE
  5
B55
330
7B6
100
AcDbEntity
  8
0
  6
Continuous
 62
     7
370
    15
100
AcDbLine
 10
1899.580986200696
 20
1138.035267173407
 30
0.0
 11
1899.625030943814
 21
1138.035267173407
 31
0.0
1001
AcDbBlockRepETag
1070
     1
1071
      137
1005
B55
  0
LINE
  5
B56
330
7B6
100
AcDbEntity
  8
0
  6
Continuous
 62
     7
370
    15
100
AcDbLine
 10
1905.819769430075
 20
1139.535267173407
 30
0.0
 11
1903.470682463533
 21
1139.535267173407
 31
0.0
1001
AcDbBlockRepETag
1070
     1
1071
      138
1005
B56
  0
LINE
  5
B57
330
7B6
100
AcDbEntity
  8
0
  6
Continuous
 62
     7
370
    15
100
AcDbLine
 10
1903.470682463533
 20
1139.535267173407
 30
0.0
 11
1903.470682463533
 21
1141.285267173407
 31
0.0
1001
AcDbBlockRepETag
1070
     1
1071
      139
1005
B57
  0
LINE
  5
B58
330
7B6
100
AcDbEntity
  8
0
  6
Continuous
 62
     7
370
    15
100
AcDbLine
 10
1903.470682463533
 20
1141.285267173407
 30
0.0
 11
1901.974117910356
 21
1141.285267173407
 31
0.0
1001
AcDbBlockRepETag
1070
     1
1071
      140
1005
B58
  0
LINE
  5
B59
330
7B6
100
AcDbEntity
  8
0
  6
Continuous
 62
     7
370
    15
100
AcDbLine
 10
1901.974117910356
 20
1141.285267173407
 30
0.0
 11
1901.974117910356
 21
1139.535267173407
 31
0.0
1001
AcDbBlockRepETag
1070
     1
1071
      141
1005
B59
  0
LINE
  5
B5A
330
7B6
100
AcDbEntity
  8
0
  6
Continuous
 62
     7
370
    15
100
AcDbLine
 10
1901.974117910356
 20
1139.535267173407
 30
0.0
 11
1899.625030943814
 21
1139.535267173407
 31
0.0
1001
AcDbBlockRepETag
1070
     1
1071
      142
1005
B5A
  0
LINE
  5
B5B
330
7B6
100
AcDbEntity
  8
0
  6
Continuous
 62
     7
370
    15
100
AcDbLine
 10
1901.974117910356
 20
1138.035267173407
 30
0.0
 11
1901.974117910356
 21
1136.285267173406
 31
0.0
1001
AcDbBlockRepETag
1070
     1
1071
      143
1005
B5B
  0
LINE
  5
B5C
330
7B6
100
AcDbEntity
  8
0
  6
Continuous
 62
     7
370
    15
100
AcDbLine
 10
1901.974117910356
 20
1136.285267173406
 30
0.0
 11
1903.470682463533
 21
1136.285267173406
 31
0.0
1001
AcDbBlockRepETag
1070
     1
1071
      144
1005
B5C
  0
LINE
  5
B5D
330
7B6
100
AcDbEntity
  8
0
  6
Continuous
 62
     7
370
    15
100
AcDbLine
 10
1903.470682463533
 20
1136.285267173406
 30
0.0
 11
1903.470682463533
 21
1138.035267173407
 31
0.0
1001
AcDbBlockRepETag
1070
     1
1071
      145
1005
B5D
  0
LINE
  5
B5E
330
7B6
100
AcDbEntity
  8
0
  6
Continuous
 62
     7
370
    15
100
AcDbLine
 10
1903.470682463533
 20
1138.035267173407
 30
0.0
 11
1905.819769430075
 21
1138.035267173407
 31
0.0
1001
AcDbBlockRepETag
1070
     1
1071
      146
1005
B5E
  0
LINE
  5
B5F
330
7B6
100
AcDbEntity
  8
0
  6
Continuous
 62
     7
370
    15
100
AcDbLine
 10
1899.625030943814
 20
1138.035267173407
 30
0.0
 11
1901.974117910356
 21
1138.035267173407
 31
0.0
1001
AcDbBlockRepETag
1070
     1
1071
      147
1005
B5F
  0
LINE
  5
B60
330
7B6
100
AcDbEntity
  8
0
  6
Continuous
 62
     7
370
    15
100
AcDbLine
 10
1902.10940058183
 20
1141.285267173407
 30
0.0
 11
1902.10940058183
 21
1139.535267173407
 31
0.0
1001
AcDbBlockRepETag
1070
     1
1071
      148
1005
B60
  0
LINE
  5
B61
330
7B6
100
AcDbEntity
  8
0
  6
Continuous
 62
     7
370
    15
100
AcDbLine
 10
1902.10940058183
 20
1139.535267173407
 30
0.0
 11
1901.974117910356
 21
1139.535267173407
 31
0.0
1001
AcDbBlockRepETag
1070
     1
1071
      149
1005
B61
  0
LINE
  5
B62
330
7B6
100
AcDbEntity
  8
0
  6
Continuous
 62
     7
370
    15
100
AcDbLine
 10
1902.10940058183
 20
1138.035267173407
 30
0.0
 11
1901.974117910356
 21
1138.035267173407
 31
0.0
1001
AcDbBlockRepETag
1070
     1
1071
      150
1005
B62
  0
LINE
  5
B63
330
7B6
100
AcDbEntity
  8
0
  6
Continuous
 62
     7
370
    15
100
AcDbLine
 10
1902.10940058183
 20
1138.035267173407
 30
0.0
 11
1902.10940058183
 21
1136.285267173406
 31
0.0
1001
AcDbBlockRepETag
1070
     1
1071
      151
1005
B63
  0
LINE
  5
B64
330
7B6
100
AcDbEntity
  8
0
  6
Continuous
 62
     7
370
    15
100
AcDbLine
 10
1915.933951585318
 20
1128.785267173407
 30
0.0
 11
1915.933951585318
 21
1148.785267173407
 31
0.0
1001
AcDbBlockRepETag
1070
     1
1071
      152
1005
B64
  0
LINE
  5
B65
330
7B6
100
AcDbEntity
  8
0
  6
Continuous
 62
     7
370
    15
100
AcDbLine
 10
1917.933951585318
 20
1128.785267173407
 30
0.0
 11
1917.933951585318
 21
1148.785267173407
 31
0.0
1001
AcDbBlockRepETag
1070
     1
1071
      153
1005
B65
  0
LINE
  5
B66
330
7B6
100
AcDbEntity
  8
0
  6
Continuous
 62
     7
370
    15
100
AcDbLine
 10
1917.933951585318
 20
1128.785267173407
 30
0.0
 11
1915.933951585318
 21
1128.785267173407
 31
0.0
1001
AcDbBlockRepETag
1070
     1
1071
      154
1005
B66
  0
LINE
  5
B67
330
7B6
100
AcDbEntity
  8
0
  6
Continuous
 62
     7
370
    15
100
AcDbLine
 10
1917.933951585318
 20
1148.785267173407
 30
0.0
 11
1915.933951585318
 21
1148.785267173407
 31
0.0
1001
AcDbBlockRepETag
1070
     1
1071
      155
1005
B67
  0
CIRCLE
  5
B68
330
7B6
100
AcDbEntity
  8
0
  6
Continuous
 62
     7
370
    15
100
AcDbCircle
 10
1902.965471164388
 20
1138.786333020617
 30
0.0
 40
3.99716525293955
1001
AcDbBlockRepETag
1070
     1
1071
      156
1005
B68
  0
LINE
  5
B69
330
7B6
100
AcDbEntity
  8
0
  6
Continuous
 62
     7
370
    15
100
AcDbLine
 10
1913.933951585318
 20
1128.785267173407
 30
0.0
 11
1913.933951585318
 21
1148.785267173407
 31
0.0
1001
AcDbBlockRepETag
1070
     1
1071
      157
1005
B69
  0
LINE
  5
B6A
330
7B6
100
AcDbEntity
  8
0
  6
Continuous
 62
     7
370
    15
100
AcDbLine
 10
1913.933951585318
 20
1128.785267173407
 30
0.0
 11
1894.433951585318
 21
1128.785267173407
 31
0.0
1001
AcDbBlockRepETag
1070
     1
1071
      158
1005
B6A
  0
LINE
  5
B6B
330
7B6
100
AcDbEntity
  8
0
  6
Continuous
 62
     7
370
    15
100
AcDbLine
 10
1913.933951585318
 20
1148.785267173407
 30
0.0
 11
1894.433951585318
 21
1148.785267173407
 31
0.0
1001
AcDbBlockRepETag
1070
     1
1071
      159
1005
B6B
  0
ARC
  5
B6C
330
7B6
100
AcDbEntity
  8
0
  6
Continuous
 62
     7
370
    15
100
AcDbCircle
 10
1902.972776868972
 20
1138.785267173407
 30
0.0
 40
4.000005895956213
100
AcDbArc
 50
90.09837494298045
 51
269.9016250570196
1001
AcDbBlockRepETag
1070
     1
1071
      160
1005
B6C
  0
LINE
  5
B6D
330
7B6
100
AcDbEntity
  8
0
  6
Continuous
 62
     7
370
    15
100
AcDbLine
 10
1842.044991153753
 20
1158.385267173406
 30
0.0
 11
1845.944991153753
 21
1158.385267173406
 31
0.0
1001
AcDbBlockRepETag
1070
     1
1071
      161
1005
B6D
  0
LINE
  5
B6E
330
7B6
100
AcDbEntity
  8
0
  6
Continuous
 62
     7
370
    15
100
AcDbLine
 10
1845.944991153753
 20
1158.385267173406
 30
0.0
 11
1845.944991153753
 21
1148.785267173407
 31
0.0
1001
AcDbBlockRepETag
1070
     1
1071
      162
1005
B6E
  0
LINE
  5
B6F
330
7B6
100
AcDbEntity
  8
0
  6
Continuous
 62
     7
370
    15
100
AcDbLine
 10
1842.044991153753
 20
1148.785267173407
 30
0.0
 11
1842.044991153753
 21
1158.385267173406
 31
0.0
1001
AcDbBlockRepETag
1070
     1
1071
      163
1005
B6F
  0
LINE
  5
B70
330
7B6
100
AcDbEntity
  8
0
  6
Continuous
 62
     7
370
    15
100
AcDbLine
 10
1851.944991153753
 20
1157.785267173407
 30
0.0
 11
1855.844991153753
 21
1157.785267173407
 31
0.0
1001
AcDbBlockRepETag
1070
     1
1071
      164
1005
B70
  0
LINE
  5
B71
330
7B6
100
AcDbEntity
  8
0
  6
Continuous
 62
     7
370
    15
100
AcDbLine
 10
1851.944991153753
 20
1148.785267173407
 30
0.0
 11
1851.944991153753
 21
1157.785267173407
 31
0.0
1001
AcDbBlockRepETag
1070
     1
1071
      165
1005
B71
  0
LINE
  5
B72
330
7B6
100
AcDbEntity
  8
0
  6
Continuous
 62
     7
370
    15
100
AcDbLine
 10
1855.844991153753
 20
1157.785267173407
 30
0.0
 11
1855.844991153753
 21
1148.785267173407
 31
0.0
1001
AcDbBlockRepETag
1070
     1
1071
      166
1005
B72
  0
LINE
  5
B73
330
7B6
100
AcDbEntity
  8
0
  6
Continuous
 62
     7
370
    15
100
AcDbLine
 10
1845.944991153753
 20
1128.785267173407
 30
0.0
 11
1845.944991153753
 21
1119.185267173407
 31
0.0
1001
AcDbBlockRepETag
1070
     1
1071
      167
1005
B73
  0
LINE
  5
B74
330
7B6
100
AcDbEntity
  8
0
  6
Continuous
 62
     7
370
    15
100
AcDbLine
 10
1845.944991153753
 20
1119.185267173407
 30
0.0
 11
1842.044991153753
 21
1119.185267173407
 31
0.0
1001
AcDbBlockRepETag
1070
     1
1071
      168
1005
B74
  0
LINE
  5
B75
330
7B6
100
AcDbEntity
  8
0
  6
Continuous
 62
     7
370
    15
100
AcDbLine
 10
1842.044991153753
 20
1119.185267173407
 30
0.0
 11
1842.044991153753
 21
1128.785267173407
 31
0.0
1001
AcDbBlockRepETag
1070
     1
1071
      169
1005
B75
  0
LINE
  5
B76
330
7B6
100
AcDbEntity
  8
0
  6
Continuous
 62
     7
370
    15
100
AcDbLine
 10
1855.844991153753
 20
1119.785267173406
 30
0.0
 11
1851.944991153753
 21
1119.785267173406
 31
0.0
1001
AcDbBlockRepETag
1070
     1
1071
      170
1005
B76
  0
LINE
  5
B77
330
7B6
100
AcDbEntity
  8
0
  6
Continuous
 62
     7
370
    15
100
AcDbLine
 10
1855.844991153753
 20
1128.785267173407
 30
0.0
 11
1855.844991153753
 21
1119.785267173406
 31
0.0
1001
AcDbBlockRepETag
1070
     1
1071
      171
1005
B77
  0
LINE
  5
B78
330
7B6
100
AcDbEntity
  8
0
  6
Continuous
 62
     7
370
    15
100
AcDbLine
 10
1851.944991153753
 20
1119.785267173406
 30
0.0
 11
1851.944991153753
 21
1128.785267173407
 31
0.0
1001
AcDbBlockRepETag
1070
     1
1071
      172
1005
B78
  0
LINE
  5
B79
330
7B6
100
AcDbEntity
  8
0
  6
Continuous
 62
     7
370
    15
100
AcDbLine
 10
1915.933951585318
 20
1128.785267173407
 30
0.0
 11
1913.933951585318
 21
1128.785267173407
 31
0.0
1001
AcDbBlockRepETag
1070
     1
1071
      173
1005
B79
  0
LINE
  5
B7A
330
7B6
100
AcDbEntity
  8
0
  6
Continuous
 62
     7
370
    15
100
AcDbLine
 10
1915.933951585318
 20
1148.785267173407
 30
0.0
 11
1913.933951585318
 21
1148.785267173407
 31
0.0
1001
AcDbBlockRepETag
1070
     1
1071
      174
1005
B7A
  0
ENDBLK
  5
7B8
330
7B6
100
AcDbEntity
  8
0
100
AcDbBlockEnd
  0
BLOCK
  5
86A
330
869
100
AcDbEntity
  8
0
100
AcDbBlockBegin
  2
3
 70
     0
 10
0.0
 20
0.0
 30
0.0
  3
3
  1

  0
LINE
  5
A5E
330
869
100
AcDbEntity
  8
0
  6
Continuous
 62
     7
370
    15
100
AcDbLine
 10
1624.200826025231
 20
1218.622988779353
 30
0.0
 11
1623.959744881323
 21
1221.372199424571
 31
0.0
1001
AcDbBlockRepETag
1070
     1
1071
        0
1005
A5E
  0
LINE
  5
A5F
330
869
100
AcDbEntity
  8
0
  6
Continuous
 62
     7
370
    15
100
AcDbLine
 10
1617.572277890643
 20
1221.372199424571
 30
0.0
 11
1617.331196746735
 21
1218.622988779353
 31
0.0
1001
AcDbBlockRepETag
1070
     1
1071
        1
1005
A5F
  0
LINE
  5
A60
330
869
100
AcDbEntity
  8
0
  6
Continuous
 62
     7
370
    15
100
AcDbLine
 10
1623.366011385983
 20
1206.904127362953
 30
0.0
 11
1623.366011385983
 21
1210.048584430425
 31
0.0
1001
AcDbBlockRepETag
1070
     1
1071
        2
1005
A60
  0
LINE
  5
A61
330
869
100
AcDbEntity
  8
0
  6
Continuous
 62
     7
370
    15
100
AcDbLine
 10
1618.166011385983
 20
1210.048584430425
 30
0.0
 11
1618.166011385983
 21
1206.904127362953
 31
0.0
1001
AcDbBlockRepETag
1070
     1
1071
        3
1005
A61
  0
LINE
  5
A62
330
869
100
AcDbEntity
  8
0
  6
Continuous
 62
     7
370
    15
100
AcDbLine
 10
1624.182669655233
 20
1236.300954881048
 30
0.0
 11
1623.959750359143
 21
1238.843625305921
 31
0.0
1001
AcDbBlockRepETag
1070
     1
1071
        4
1005
A62
  0
LINE
  5
A63
330
869
100
AcDbEntity
  8
0
  6
Continuous
 62
     7
370
    15
100
AcDbLine
 10
1617.572272412823
 20
1238.843625305921
 30
0.0
 11
1617.349353116733
 21
1236.300954881048
 31
0.0
1001
AcDbBlockRepETag
1070
     1
1071
        5
1005
A63
  0
LINE
  5
A64
330
869
100
AcDbEntity
  8
0
  6
Continuous
 62
     7
370
    15
100
AcDbLine
 10
1624.182669655233
 20
1256.100954881048
 30
0.0
 11
1623.959750359143
 21
1258.643625305921
 31
0.0
1001
AcDbBlockRepETag
1070
     1
1071
        6
1005
A64
  0
LINE
  5
A65
330
869
100
AcDbEntity
  8
0
  6
Continuous
 62
     7
370
    15
100
AcDbLine
 10
1617.572272412823
 20
1258.643625305921
 30
0.0
 11
1617.349353116733
 21
1256.100954881048
 31
0.0
1001
AcDbBlockRepETag
1070
     1
1071
        7
1005
A65
  0
LINE
  5
A66
330
869
100
AcDbEntity
  8
0
  6
Continuous
 62
     7
370
    15
100
AcDbLine
 10
1624.182669655233
 20
1275.900954881048
 30
0.0
 11
1623.959750359143
 21
1278.443625305921
 31
0.0
1001
AcDbBlockRepETag
1070
     1
1071
        8
1005
A66
  0
LINE
  5
A67
330
869
100
AcDbEntity
  8
0
  6
Continuous
 62
     7
370
    15
100
AcDbLine
 10
1617.572272412823
 20
1278.443625305921
 30
0.0
 11
1617.349353116733
 21
1275.900954881048
 31
0.0
1001
AcDbBlockRepETag
1070
     1
1071
        9
1005
A67
  0
LINE
  5
A68
330
869
100
AcDbEntity
  8
0
  6
Continuous
 62
     7
370
    15
100
AcDbLine
 10
1624.178286176432
 20
1295.700954881048
 30
0.0
 11
1623.959744881323
 21
1298.193128450466
 31
0.0
1001
AcDbBlockRepETag
1070
     1
1071
       10
1005
A68
  0
LINE
  5
A69
330
869
100
AcDbEntity
  8
0
  6
Continuous
 62
     7
370
    15
100
AcDbLine
 10
1617.572277890643
 20
1298.193128450466
 30
0.0
 11
1617.353736595534
 21
1295.700954881048
 31
0.0
1001
AcDbBlockRepETag
1070
     1
1071
       11
1005
A69
  0
LINE
  5
A6A
330
869
100
AcDbEntity
  8
0
  6
Continuous
 62
     7
370
    15
100
AcDbLine
 10
1610.766011385983
 20
1210.622988779353
 30
0.0
 11
1630.766011385983
 21
1210.622988779353
 31
0.0
1001
AcDbBlockRepETag
1070
     1
1071
       12
1005
A6A
  0
LINE
  5
A6B
330
869
100
AcDbEntity
  8
0
  6
Continuous
 62
     7
370
    15
100
AcDbLine
 10
1610.766011385983
 20
1210.622988779353
 30
0.0
 11
1610.766011385983
 21
1218.622988779353
 31
0.0
1001
AcDbBlockRepETag
1070
     1
1071
       13
1005
A6B
  0
LINE
  5
A6C
330
869
100
AcDbEntity
  8
0
  6
Continuous
 62
     7
370
    15
100
AcDbLine
 10
1610.766011385983
 20
1218.622988779353
 30
0.0
 11
1630.766011385983
 21
1218.622988779353
 31
0.0
1001
AcDbBlockRepETag
1070
     1
1071
       14
1005
A6C
  0
LINE
  5
A6D
330
869
100
AcDbEntity
  8
0
  6
Continuous
 62
     7
370
    15
100
AcDbLine
 10
1630.766011385983
 20
1210.622988779353
 30
0.0
 11
1630.766011385983
 21
1218.622988779353
 31
0.0
1001
AcDbBlockRepETag
1070
     1
1071
       15
1005
A6D
  0
LINE
  5
A6E
330
869
100
AcDbEntity
  8
0
  6
Continuous
 62
     7
370
    15
100
AcDbLine
 10
1610.766011385983
 20
1209.600954881048
 30
0.0
 11
1618.166011385983
 21
1209.600954881048
 31
0.0
1001
AcDbBlockRepETag
1070
     1
1071
       16
1005
A6E
  0
LINE
  5
A6F
330
869
100
AcDbEntity
  8
0
  6
Continuous
 62
     7
370
    15
100
AcDbLine
 10
1623.366011385983
 20
1209.600954881048
 30
0.0
 11
1630.766011385983
 21
1209.600954881048
 31
0.0
1001
AcDbBlockRepETag
1070
     1
1071
       17
1005
A6F
  0
LINE
  5
A70
330
869
100
AcDbEntity
  8
0
  6
Continuous
 62
     7
370
    15
100
AcDbLine
 10
1610.766011385983
 20
1209.600954881048
 30
0.0
 11
1610.766011385983
 21
1210.622988779353
 31
0.0
1001
AcDbBlockRepETag
1070
     1
1071
       18
1005
A70
  0
LINE
  5
A71
330
869
100
AcDbEntity
  8
0
  6
Continuous
 62
     7
370
    15
100
AcDbLine
 10
1630.766011385983
 20
1209.600954881048
 30
0.0
 11
1630.766011385983
 21
1210.622988779353
 31
0.0
1001
AcDbBlockRepETag
1070
     1
1071
       19
1005
A71
  0
ELLIPSE
  5
A72
330
869
100
AcDbEntity
  8
0
  6
Continuous
 62
     7
370
    15
100
AcDbEllipse
 10
1620.766011385983
 20
1210.048584430425
 30
0.0
 11
2.599999999999909
 21
0.0
 31
0.0
210
0.0
220
0.0
230
1.0
 40
0.0397519689709428
 41
0.0
 42
1.570796326794896
1001
AcDbBlockRepETag
1070
     1
1071
       20
1005
A72
  0
ELLIPSE
  5
A73
330
869
100
AcDbEntity
  8
0
  6
Continuous
 62
     7
370
    15
100
AcDbEllipse
 10
1620.766011385983
 20
1210.048584430425
 30
0.0
 11
2.599999999999909
 21
0.0
 31
0.0
210
0.0
220
0.0
230
1.0
 40
0.0397519689709428
 41
1.570796326794896
 42
3.14159265358979
1001
AcDbBlockRepETag
1070
     1
1071
       21
1005
A73
  0
ARC
  5
A74
330
869
100
AcDbEntity
  8
0
  6
Continuous
 62
     7
370
    15
100
AcDbCircle
 10
1619.339264874621
 20
1215.093869479604
 30
0.0
 40
6.522244237945773
100
AcDbArc
 50
84.04428413356054
 51
105.7188422656774
1001
AcDbBlockRepETag
1070
     1
1071
       22
1005
A74
  0
LINE
  5
A75
330
869
100
AcDbEntity
  8
0
  6
Continuous
 62
     7
370
    15
100
AcDbLine
 10
1620.016011385983
 20
1221.580909178787
 30
0.0
 11
1620.016011385983
 21
1219.597647565372
 31
0.0
1001
AcDbBlockRepETag
1070
     1
1071
       23
1005
A75
  0
ARC
  5
A76
330
869
100
AcDbEntity
  8
0
  6
Continuous
 62
     7
370
    15
100
AcDbCircle
 10
1620.766011385984
 20
1170.526119327246
 30
0.0
 40
49.07725933286353
100
AcDbArc
 50
89.12437026835261
 51
90.87562973166043
1001
AcDbBlockRepETag
1070
     1
1071
       24
1005
A76
  0
LINE
  5
A77
330
869
100
AcDbEntity
  8
0
  6
Continuous
 62
     7
370
    15
100
AcDbLine
 10
1621.516011385983
 20
1219.597647565372
 30
0.0
 11
1621.516011385983
 21
1221.580909178787
 31
0.0
1001
AcDbBlockRepETag
1070
     1
1071
       25
1005
A77
  0
ARC
  5
A78
330
869
100
AcDbEntity
  8
0
  6
Continuous
 62
     7
370
    15
100
AcDbCircle
 10
1621.961394494802
 20
1212.384889736356
 30
0.0
 40
9.206798558630762
100
AcDbArc
 50
77.46408175943719
 51
92.77279184132364
1001
AcDbBlockRepETag
1070
     1
1071
       26
1005
A78
  0
LWPOLYLINE
  5
A79
330
869
100
AcDbEntity
  8
0
  6
Continuous
 62
     7
370
    15
100
AcDbPolyline
 90
       29
 70
   128
 43
0.0
 10
1623.366011385983
 20
1206.904127362953
 10
1623.300823957656
 20
1206.943261557279
 10
1623.108530442529
 20
1206.980433399691
 10
1622.7987732404
 20
1207.013778938795
 10
1622.387084870816
 20
1207.041626090021
 10
1621.894109107689
 20
1207.062578480927
 10
1621.344565814269
 20
1207.075585471144
 10
1620.766011385983
 20
1207.079994835869
 10
1620.187456957696
 20
1207.075585471144
 10
1619.637913664277
 20
1207.062578480927
 10
1619.14493790115
 20
1207.041626090021
 10
1618.733249531566
 20
1207.013778938795
 10
1618.423492329437
 20
1206.980433399691
 10
1618.23119881431
 20
1206.943261557279
 10
1618.166011385983
 20
1206.904127362953
 10
1618.23119881431
 20
1206.864993168628
 10
1618.423492329437
 20
1206.827821326216
 10
1618.733249531566
 20
1206.794475787112
 10
1619.14493790115
 20
1206.766628635886
 10
1619.637913664277
 20
1206.74567624498
 10
1620.187456957696
 20
1206.732669254763
 10
1620.766011385983
 20
1206.728259890038
 10
1621.344565814269
 20
1206.732669254763
 10
1621.894109107689
 20
1206.74567624498
 10
1622.387084870816
 20
1206.766628635886
 10
1622.7987732404
 20
1206.794475787112
 10
1623.108530442529
 20
1206.827821326216
 10
1623.300823957656
 20
1206.864993168628
 10
1623.366011385983
 20
1206.904127362953
1001
AcDbBlockRepETag
1070
     1
1071
       27
1005
A79
  0
LINE
  5
A7A
330
869
100
AcDbEntity
  8
0
  6
Continuous
 62
     7
370
    15
100
AcDbLine
 10
1610.766011385983
 20
1236.300954881048
 30
0.0
 11
1630.766011385983
 21
1236.300954881048
 31
0.0
1001
AcDbBlockRepETag
1070
     1
1071
       28
1005
A7A
  0
LINE
  5
A7B
330
869
100
AcDbEntity
  8
0
  6
Continuous
 62
     7
370
    15
100
AcDbLine
 10
1610.766011385983
 20
1218.622988779353
 30
0.0
 11
1610.766011385983
 21
1236.300954881048
 31
0.0
1001
AcDbBlockRepETag
1070
     1
1071
       29
1005
A7B
  0
LINE
  5
A7C
330
869
100
AcDbEntity
  8
0
  6
Continuous
 62
     7
370
    15
100
AcDbLine
 10
1630.766011385983
 20
1218.622988779353
 30
0.0
 11
1630.766011385983
 21
1236.300954881048
 31
0.0
1001
AcDbBlockRepETag
1070
     1
1071
       30
1005
A7C
  0
ARC
  5
A7D
330
869
100
AcDbEntity
  8
0
  6
Continuous
 62
     7
370
    15
100
AcDbCircle
 10
1619.338412773128
 20
1232.238207336944
 30
0.0
 40
6.837455544074411
100
AcDbArc
 50
84.31259615883353
 51
104.9694360367137
1001
AcDbBlockRepETag
1070
     1
1071
       31
1005
A7D
  0
LINE
  5
A7E
330
869
100
AcDbEntity
  8
0
  6
Continuous
 62
     7
370
    15
100
AcDbLine
 10
1620.016011385983
 20
1239.042004691146
 30
0.0
 11
1620.016011385983
 21
1237.057692541312
 31
0.0
1001
AcDbBlockRepETag
1070
     1
1071
       32
1005
A7E
  0
ARC
  5
A7F
330
869
100
AcDbEntity
  8
0
  6
Continuous
 62
     7
370
    15
100
AcDbCircle
 10
1620.766011385982
 20
1185.41473162585
 30
0.0
 40
51.64840667548185
100
AcDbArc
 50
89.16796378111698
 51
90.83203621888301
1001
AcDbBlockRepETag
1070
     1
1071
       33
1005
A7F
  0
LINE
  5
A80
330
869
100
AcDbEntity
  8
0
  6
Continuous
 62
     7
370
    15
100
AcDbLine
 10
1621.516011385983
 20
1237.057692541312
 30
0.0
 11
1621.516011385983
 21
1239.042004691146
 31
0.0
1001
AcDbBlockRepETag
1070
     1
1071
       34
1005
A80
  0
ARC
  5
A81
330
869
100
AcDbEntity
  8
0
  6
Continuous
 62
     7
370
    15
100
AcDbCircle
 10
1621.962126231815
 20
1229.386671616692
 30
0.0
 40
9.665633721298872
100
AcDbArc
 50
78.07255598997085
 51
92.64541181448345
1001
AcDbBlockRepETag
1070
     1
1071
       35
1005
A81
  0
LINE
  5
A82
330
869
100
AcDbEntity
  8
0
  6
Continuous
 62
     7
370
    15
100
AcDbLine
 10
1610.766011385983
 20
1256.100954881048
 30
0.0
 11
1630.766011385983
 21
1256.100954881048
 31
0.0
1001
AcDbBlockRepETag
1070
     1
1071
       36
1005
A82
  0
LINE
  5
A83
330
869
100
AcDbEntity
  8
0
  6
Continuous
 62
     7
370
    15
100
AcDbLine
 10
1610.766011385983
 20
1236.300954881048
 30
0.0
 11
1610.766011385983
 21
1256.100954881048
 31
0.0
1001
AcDbBlockRepETag
1070
     1
1071
       37
1005
A83
  0
LINE
  5
A84
330
869
100
AcDbEntity
  8
0
  6
Continuous
 62
     7
370
    15
100
AcDbLine
 10
1630.766011385983
 20
1236.300954881048
 30
0.0
 11
1630.766011385983
 21
1256.100954881048
 31
0.0
1001
AcDbBlockRepETag
1070
     1
1071
       38
1005
A84
  0
LINE
  5
A85
330
869
100
AcDbEntity
  8
0
  6
Continuous
 62
     7
370
    15
100
AcDbLine
 10
1640.366011385983
 20
1213.600954881048
 30
0.0
 11
1630.766011385983
 21
1213.600954881048
 31
0.0
1001
AcDbBlockRepETag
1070
     1
1071
       39
1005
A85
  0
LINE
  5
A86
330
869
100
AcDbEntity
  8
0
  6
Continuous
 62
     7
370
    15
100
AcDbLine
 10
1639.766011385983
 20
1213.600954881048
 30
0.0
 11
1639.766011385983
 21
1209.600954881048
 31
0.0
1001
AcDbBlockRepETag
1070
     1
1071
       40
1005
A86
  0
LINE
  5
A87
330
869
100
AcDbEntity
  8
0
  6
Continuous
 62
     7
370
    15
100
AcDbLine
 10
1640.366011385983
 20
1209.600954881048
 30
0.0
 11
1630.766011385983
 21
1209.600954881048
 31
0.0
1001
AcDbBlockRepETag
1070
     1
1071
       41
1005
A87
  0
LINE
  5
A88
330
869
100
AcDbEntity
  8
0
  6
Continuous
 62
     7
370
    15
100
AcDbLine
 10
1601.766011385983
 20
1213.600954881048
 30
0.0
 11
1601.766011385983
 21
1209.600954881048
 31
0.0
1001
AcDbBlockRepETag
1070
     1
1071
       42
1005
A88
  0
LINE
  5
A89
330
869
100
AcDbEntity
  8
0
  6
Continuous
 62
     7
370
    15
100
AcDbLine
 10
1610.766011385983
 20
1213.600954881048
 30
0.0
 11
1601.166011385983
 21
1213.600954881048
 31
0.0
1001
AcDbBlockRepETag
1070
     1
1071
       43
1005
A89
  0
LINE
  5
A8A
330
869
100
AcDbEntity
  8
0
  6
Continuous
 62
     7
370
    15
100
AcDbLine
 10
1610.766011385983
 20
1209.600954881048
 30
0.0
 11
1601.166011385983
 21
1209.600954881048
 31
0.0
1001
AcDbBlockRepETag
1070
     1
1071
       44
1005
A8A
  0
ARC
  5
A8B
330
869
100
AcDbEntity
  8
0
  6
Continuous
 62
     7
370
    15
100
AcDbCircle
 10
1619.338412773128
 20
1252.038207336936
 30
0.0
 40
6.837455544082295
100
AcDbArc
 50
84.31259615884648
 51
104.9694360366977
1001
AcDbBlockRepETag
1070
     1
1071
       45
1005
A8B
  0
LINE
  5
A8C
330
869
100
AcDbEntity
  8
0
  6
Continuous
 62
     7
370
    15
100
AcDbLine
 10
1620.016011385983
 20
1258.842004691146
 30
0.0
 11
1620.016011385983
 21
1256.857692541312
 31
0.0
1001
AcDbBlockRepETag
1070
     1
1071
       46
1005
A8C
  0
ARC
  5
A8D
330
869
100
AcDbEntity
  8
0
  6
Continuous
 62
     7
370
    15
100
AcDbCircle
 10
1620.766011385982
 20
1205.21473162585
 30
0.0
 40
51.64840667548185
100
AcDbArc
 50
89.16796378111698
 51
90.83203621888301
1001
AcDbBlockRepETag
1070
     1
1071
       47
1005
A8D
  0
LINE
  5
A8E
330
869
100
AcDbEntity
  8
0
  6
Continuous
 62
     7
370
    15
100
AcDbLine
 10
1621.516011385983
 20
1256.857692541312
 30
0.0
 11
1621.516011385983
 21
1258.842004691146
 31
0.0
1001
AcDbBlockRepETag
1070
     1
1071
       48
1005
A8E
  0
ARC
  5
A8F
330
869
100
AcDbEntity
  8
0
  6
Continuous
 62
     7
370
    15
100
AcDbCircle
 10
1621.962126231815
 20
1249.186671616692
 30
0.0
 40
9.665633721298872
100
AcDbArc
 50
78.07255598997085
 51
92.64541181448345
1001
AcDbBlockRepETag
1070
     1
1071
       49
1005
A8F
  0
LINE
  5
A90
330
869
100
AcDbEntity
  8
0
  6
Continuous
 62
     7
370
    15
100
AcDbLine
 10
1640.266011385983
 20
1213.600954881048
 30
0.0
 11
1639.766011385983
 21
1213.600954881048
 31
0.0
1001
AcDbBlockRepETag
1070
     1
1071
       50
1005
A90
  0
LINE
  5
A91
330
869
100
AcDbEntity
  8
0
  6
Continuous
 62
     7
370
    15
100
AcDbLine
 10
1640.366011385983
 20
1213.600954881048
 30
0.0
 11
1640.366011385983
 21
1209.600954881048
 31
0.0
1001
AcDbBlockRepETag
1070
     1
1071
       51
1005
A91
  0
LINE
  5
A92
330
869
100
AcDbEntity
  8
0
  6
Continuous
 62
     7
370
    15
100
AcDbLine
 10
1640.266011385983
 20
1209.600954881048
 30
0.0
 11
1639.766011385983
 21
1209.600954881048
 31
0.0
1001
AcDbBlockRepETag
1070
     1
1071
       52
1005
A92
  0
LINE
  5
A93
330
869
100
AcDbEntity
  8
0
  6
Continuous
 62
     7
370
    15
100
AcDbLine
 10
1601.166011385983
 20
1213.600954881048
 30
0.0
 11
1601.166011385983
 21
1209.600954881048
 31
0.0
1001
AcDbBlockRepETag
1070
     1
1071
       53
1005
A93
  0
LINE
  5
A94
330
869
100
AcDbEntity
  8
0
  6
Continuous
 62
     7
370
    15
100
AcDbLine
 10
1601.766011385983
 20
1213.600954881048
 30
0.0
 11
1601.266011385983
 21
1213.600954881048
 31
0.0
1001
AcDbBlockRepETag
1070
     1
1071
       54
1005
A94
  0
LINE
  5
A95
330
869
100
AcDbEntity
  8
0
  6
Continuous
 62
     7
370
    15
100
AcDbLine
 10
1601.766011385983
 20
1209.600954881048
 30
0.0
 11
1601.266011385983
 21
1209.600954881048
 31
0.0
1001
AcDbBlockRepETag
1070
     1
1071
       55
1005
A95
  0
LINE
  5
A96
330
869
100
AcDbEntity
  8
0
  6
Continuous
 62
     7
370
    15
100
AcDbLine
 10
1610.766011385983
 20
1275.900954881048
 30
0.0
 11
1630.766011385983
 21
1275.900954881048
 31
0.0
1001
AcDbBlockRepETag
1070
     1
1071
       56
1005
A96
  0
LINE
  5
A97
330
869
100
AcDbEntity
  8
0
  6
Continuous
 62
     7
370
    15
100
AcDbLine
 10
1610.766011385983
 20
1256.100954881048
 30
0.0
 11
1610.766011385983
 21
1275.900954881048
 31
0.0
1001
AcDbBlockRepETag
1070
     1
1071
       57
1005
A97
  0
LINE
  5
A98
330
869
100
AcDbEntity
  8
0
  6
Continuous
 62
     7
370
    15
100
AcDbLine
 10
1630.766011385983
 20
1256.100954881048
 30
0.0
 11
1630.766011385983
 21
1275.900954881048
 31
0.0
1001
AcDbBlockRepETag
1070
     1
1071
       58
1005
A98
  0
ARC
  5
A99
330
869
100
AcDbEntity
  8
0
  6
Continuous
 62
     7
370
    15
100
AcDbCircle
 10
1619.338412773128
 20
1271.838207336943
 30
0.0
 40
6.837455544074384
100
AcDbArc
 50
84.31259615883353
 51
104.9694360367137
1001
AcDbBlockRepETag
1070
     1
1071
       59
1005
A99
  0
LINE
  5
A9A
330
869
100
AcDbEntity
  8
0
  6
Continuous
 62
     7
370
    15
100
AcDbLine
 10
1620.016011385983
 20
1278.642004691145
 30
0.0
 11
1620.016011385983
 21
1276.657692541312
 31
0.0
1001
AcDbBlockRepETag
1070
     1
1071
       60
1005
A9A
  0
ARC
  5
A9B
330
869
100
AcDbEntity
  8
0
  6
Continuous
 62
     7
370
    15
100
AcDbCircle
 10
1620.766011385982
 20
1225.01473162585
 30
0.0
 40
51.64840667548185
100
AcDbArc
 50
89.16796378111698
 51
90.83203621888301
1001
AcDbBlockRepETag
1070
     1
1071
       61
1005
A9B
  0
LINE
  5
A9C
330
869
100
AcDbEntity
  8
0
  6
Continuous
 62
     7
370
    15
100
AcDbLine
 10
1621.516011385983
 20
1276.657692541312
 30
0.0
 11
1621.516011385983
 21
1278.642004691145
 31
0.0
1001
AcDbBlockRepETag
1070
     1
1071
       62
1005
A9C
  0
ARC
  5
A9D
330
869
100
AcDbEntity
  8
0
  6
Continuous
 62
     7
370
    15
100
AcDbCircle
 10
1621.962126231815
 20
1268.986671616692
 30
0.0
 40
9.665633721298872
100
AcDbArc
 50
78.07255598997085
 51
92.64541181448345
1001
AcDbBlockRepETag
1070
     1
1071
       63
1005
A9D
  0
LINE
  5
A9E
330
869
100
AcDbEntity
  8
0
  6
Continuous
 62
     7
370
    15
100
AcDbLine
 10
1610.766011385983
 20
1295.700954881048
 30
0.0
 11
1630.766011385983
 21
1295.700954881048
 31
0.0
1001
AcDbBlockRepETag
1070
     1
1071
       64
1005
A9E
  0
LINE
  5
A9F
330
869
100
AcDbEntity
  8
0
  6
Continuous
 62
     7
370
    15
100
AcDbLine
 10
1610.766011385983
 20
1275.900954881048
 30
0.0
 11
1610.766011385983
 21
1295.700954881048
 31
0.0
1001
AcDbBlockRepETag
1070
     1
1071
       65
1005
A9F
  0
LINE
  5
AA0
330
869
100
AcDbEntity
  8
0
  6
Continuous
 62
     7
370
    15
100
AcDbLine
 10
1630.766011385983
 20
1275.900954881048
 30
0.0
 11
1630.766011385983
 21
1295.700954881048
 31
0.0
1001
AcDbBlockRepETag
1070
     1
1071
       66
1005
AA0
  0
ARC
  5
AA1
330
869
100
AcDbEntity
  8
0
  6
Continuous
 62
     7
370
    15
100
AcDbCircle
 10
1619.339264874621
 20
1291.914798505499
 30
0.0
 40
6.522244237945801
100
AcDbArc
 50
84.04428413356054
 51
105.7188422656774
1001
AcDbBlockRepETag
1070
     1
1071
       67
1005
AA1
  0
LINE
  5
AA2
330
869
100
AcDbEntity
  8
0
  6
Continuous
 62
     7
370
    15
100
AcDbLine
 10
1620.016011385983
 20
1298.401838204682
 30
0.0
 11
1620.016011385983
 21
1296.418576591267
 31
0.0
1001
AcDbBlockRepETag
1070
     1
1071
       68
1005
AA2
  0
ARC
  5
AA3
330
869
100
AcDbEntity
  8
0
  6
Continuous
 62
     7
370
    15
100
AcDbCircle
 10
1620.766011385984
 20
1247.347048353575
 30
0.0
 40
49.07725933242999
100
AcDbArc
 50
89.12437026833957
 51
90.87562973167344
1001
AcDbBlockRepETag
1070
     1
1071
       69
1005
AA3
  0
LINE
  5
AA4
330
869
100
AcDbEntity
  8
0
  6
Continuous
 62
     7
370
    15
100
AcDbLine
 10
1621.516011385983
 20
1296.418576591267
 30
0.0
 11
1621.516011385983
 21
1298.401838204682
 31
0.0
1001
AcDbBlockRepETag
1070
     1
1071
       70
1005
AA4
  0
ARC
  5
AA5
330
869
100
AcDbEntity
  8
0
  6
Continuous
 62
     7
370
    15
100
AcDbCircle
 10
1621.961394494802
 20
1289.205818762251
 30
0.0
 40
9.206798558630897
100
AcDbArc
 50
77.46408175943719
 51
92.77279184132364
1001
AcDbBlockRepETag
1070
     1
1071
       71
1005
AA5
  0
LINE
  5
AA6
330
869
100
AcDbEntity
  8
0
  6
Continuous
 62
     7
370
    15
100
AcDbLine
 10
1610.766011385983
 20
1302.700954881047
 30
0.0
 11
1630.766011385983
 21
1302.700954881047
 31
0.0
1001
AcDbBlockRepETag
1070
     1
1071
       72
1005
AA6
  0
LINE
  5
AA7
330
869
100
AcDbEntity
  8
0
  6
Continuous
 62
     7
370
    15
100
AcDbLine
 10
1610.766011385983
 20
1295.700954881048
 30
0.0
 11
1610.766011385983
 21
1302.700954881047
 31
0.0
1001
AcDbBlockRepETag
1070
     1
1071
       73
1005
AA7
  0
LINE
  5
AA8
330
869
100
AcDbEntity
  8
0
  6
Continuous
 62
     7
370
    15
100
AcDbLine
 10
1630.766011385983
 20
1295.700954881048
 30
0.0
 11
1630.766011385983
 21
1302.700954881047
 31
0.0
1001
AcDbBlockRepETag
1070
     1
1071
       74
1005
AA8
  0
LINE
  5
AA9
330
869
100
AcDbEntity
  8
0
  6
Continuous
 62
     7
370
    15
100
AcDbLine
 10
1610.766011385983
 20
1305.100954881048
 30
0.0
 11
1630.766011385983
 21
1305.100954881048
 31
0.0
1001
AcDbBlockRepETag
1070
     1
1071
       75
1005
AA9
  0
LINE
  5
AAA
330
869
100
AcDbEntity
  8
0
  6
Continuous
 62
     7
370
    15
100
AcDbLine
 10
1610.766011385983
 20
1307.100954881048
 30
0.0
 11
1630.766011385983
 21
1307.100954881048
 31
0.0
1001
AcDbBlockRepETag
1070
     1
1071
       76
1005
AAA
  0
LINE
  5
AAB
330
869
100
AcDbEntity
  8
0
  6
Continuous
 62
     7
370
    15
100
AcDbLine
 10
1610.766011385983
 20
1305.100954881048
 30
0.0
 11
1610.766011385983
 21
1307.100954881048
 31
0.0
1001
AcDbBlockRepETag
1070
     1
1071
       77
1005
AAB
  0
LINE
  5
AAC
330
869
100
AcDbEntity
  8
0
  6
Continuous
 62
     7
370
    15
100
AcDbLine
 10
1630.766011385983
 20
1305.100954881048
 30
0.0
 11
1630.766011385983
 21
1307.100954881048
 31
0.0
1001
AcDbBlockRepETag
1070
     1
1071
       78
1005
AAC
  0
LINE
  5
AAD
330
869
100
AcDbEntity
  8
0
  6
Continuous
 62
     7
370
    15
100
AcDbLine
 10
1610.766011385983
 20
1302.700954881047
 30
0.0
 11
1610.766011385983
 21
1305.100954881048
 31
0.0
1001
AcDbBlockRepETag
1070
     1
1071
       79
1005
AAD
  0
LINE
  5
AAE
330
869
100
AcDbEntity
  8
0
  6
Continuous
 62
     7
370
    15
100
AcDbLine
 10
1630.766011385983
 20
1302.700954881047
 30
0.0
 11
1630.766011385983
 21
1305.100954881048
 31
0.0
1001
AcDbBlockRepETag
1070
     1
1071
       80
1005
AAE
  0
ENDBLK
  5
86B
330
869
100
AcDbEntity
  8
0
100
AcDbBlockEnd
  0
BLOCK
  5
8BF
330
8BE
100
AcDbEntity
  8
0
100
AcDbBlockBegin
  2
4
 70
     0
 10
0.0
 20
0.0
 30
0.0
  3
4
  1

  0
LINE
  5
8C1
330
8BE
100
AcDbEntity
  8
0
  6
Continuous
 62
     7
370
    15
100
AcDbLine
 10
2089.498648778882
 20
1207.788228012746
 30
0.0
 11
2089.055850578673
 21
1210.528248832326
 31
0.0
  0
LINE
  5
8C2
330
8BE
100
AcDbEntity
  8
0
  6
Continuous
 62
     7
370
    15
100
AcDbLine
 10
2082.688438394369
 20
1210.166670380901
 30
0.0
 11
2082.558674915696
 21
1207.39413620123
 31
0.0
  0
SPLINE
  5
8C3
330
8BE
100
AcDbEntity
  8
0
  6
Continuous
 62
     7
370
    15
100
AcDbSpline
210
0.0
220
0.0
230
1.0
 70
     8
 71
     3
 72
    13
 73
     9
 74
     0
 42
0.0000000001
 43
0.0000000001
 40
0.0
 40
0.0
 40
0.0
 40
0.0
 40
0.1434448758053197
 40
0.3353882958044489
 40
0.5268293972709275
 40
0.7143837082450282
 40
0.8955622319550514
 40
0.9999999999999998
 40
0.9999999999999998
 40
0.9999999999999998
 40
0.9999999999999998
 10
2088.506707374762
 20
1206.186068499976
 30
0.0
 10
2088.61757137975
 20
1206.254883097247
 30
0.0
 10
2088.876782379727
 20
1206.415778426378
 30
0.0
 10
2089.178505248238
 20
1206.717764252317
 30
0.0
 10
2089.412944364203
 20
1207.07437490535
 30
0.0
 10
2089.520315965303
 20
1207.450087647621
 30
0.0
 10
2089.522973498601
 20
1207.777068811412
 30
0.0
 10
2089.446960516909
 20
1207.960806016941
 30
0.0
 10
2089.41916579238
 20
1208.027990922726
 30
0.0
  0
SPLINE
  5
8C4
330
8BE
100
AcDbEntity
  8
0
  6
Continuous
 62
     7
370
    15
100
AcDbSpline
210
0.0
220
0.0
230
1.0
 70
     8
 71
     3
 72
    13
 73
     9
 74
     0
 42
0.0000000001
 43
0.0000000001
 40
0.0
 40
0.0
 40
0.0
 40
0.0
 40
0.0361851342092906
 40
0.2508370791326137
 40
0.4625877624486993
 40
0.6767687856965893
 40
0.8973159810965173
 40
1.0
 40
1.0
 40
1.0
 40
1.0
 10
2082.573713514083
 20
1207.475010300482
 30
0.0
 10
2082.568635335266
 20
1207.45463943294
 30
0.0
 10
2082.533433157089
 20
1207.313427605895
 30
0.0
 10
2082.582456414286
 20
1207.046942191457
 30
0.0
 10
2082.721903623964
 20
1206.701164466916
 30
0.0
 10
2082.979392180281
 20
1206.388851662365
 30
0.0
 10
2083.253243717583
 20
1206.155210557743
 30
0.0
 10
2083.469957144255
 20
1206.045565989555
 30
0.0
 10
2083.538802616525
 20
1206.010734127982
 30
0.0
  0
LINE
  5
8C5
330
8BE
100
AcDbEntity
  8
0
  6
Continuous
 62
     7
370
    15
100
AcDbLine
 10
2073.028103998737
 20
1231.553977788193
 30
0.0
 11
2072.593064884376
 21
1234.290786863135
 31
0.0
  0
LINE
  5
8C6
330
8BE
100
AcDbEntity
  8
0
  6
Continuous
 62
     7
370
    15
100
AcDbLine
 10
2066.224793069955
 20
1233.946676934289
 30
0.0
 11
2066.087193206957
 21
1231.178925279713
 31
0.0
  0
SPLINE
  5
8C7
330
8BE
100
AcDbEntity
  8
0
  6
Continuous
 62
     7
370
    15
100
AcDbSpline
210
0.0
220
0.0
230
1.0
 70
     8
 71
     3
 72
    13
 73
     9
 74
     0
 42
0.0000000001
 43
0.0000000001
 40
0.0
 40
0.0
 40
0.0
 40
0.0
 40
0.1433118385273094
 40
0.3352718540495065
 40
0.5266860806120216
 40
0.7142117604080321
 40
0.8954442647247377
 40
1.0
 40
1.0
 40
1.0
 40
1.0
 10
2072.035852845271
 20
1229.95105756315
 30
0.0
 10
2072.146622286479
 20
1230.019810045437
 30
0.0
 10
2072.405762608082
 20
1230.180653507106
 30
0.0
 10
2072.707436852882
 20
1230.482964024949
 30
0.0
 10
2072.941894685157
 20
1230.840208502429
 30
0.0
 10
2073.049317600467
 20
1231.216724569338
 30
0.0
 10
2073.052126232576
 20
1231.544524070116
 30
0.0
 10
2072.976216199756
 20
1231.728984655151
 30
0.0
 10
2072.94844448561
 20
1231.796469629778
 30
0.0
  0
SPLINE
  5
8C8
330
8BE
100
AcDbEntity
  8
0
  6
Continuous
 62
     7
370
    15
100
AcDbSpline
210
0.0
220
0.0
230
1.0
 70
     8
 71
     3
 72
    13
 73
     9
 74
     0
 42
0.0000000001
 43
0.0000000001
 40
0.0
 40
0.0
 40
0.0
 40
0.0
 40
0.0364418173843085
 40
0.2509976332275563
 40
0.4627264517160635
 40
0.6768866254131588
 40
0.8973264011731959
 40
1.0
 40
1.0
 40
1.0
 40
1.0
 10
2066.102206842756
 20
1231.257346523172
 30
0.0
 10
2066.09708315469
 20
1231.236769759288
 30
0.0
 10
2066.061793104127
 20
1231.09504469163
 30
0.0
 10
2066.110669670617
 20
1230.827590248832
 30
0.0
 10
2066.249964371532
 20
1230.480440671678
 30
0.0
 10
2066.507394045423
 20
1230.166478257084
 30
0.0
 10
2066.781314375674
 20
1229.931357175183
 30
0.0
 10
2066.998103678626
 20
1229.820812272771
 30
0.0
 10
2067.066991380813
 20
1229.785685150667
 30
0.0
  0
LINE
  5
8C9
330
8BE
100
AcDbEntity
  8
0
  6
Continuous
 62
     7
370
    15
100
AcDbLine
 10
2052.168453953734
 20
1259.763505512916
 30
0.0
 11
2051.733414839373
 21
1262.500314587858
 31
0.0
  0
LINE
  5
8CA
330
8BE
100
AcDbEntity
  8
0
  6
Continuous
 62
     7
370
    15
100
AcDbLine
 10
2045.365143024952
 20
1262.156204659012
 30
0.0
 11
2045.227543161954
 21
1259.388453004435
 31
0.0
  0
SPLINE
  5
8CB
330
8BE
100
AcDbEntity
  8
0
  6
Continuous
 62
     7
370
    15
100
AcDbSpline
210
0.0
220
0.0
230
1.0
 70
     8
 71
     3
 72
    13
 73
     9
 74
     0
 42
0.0000000001
 43
0.0000000001
 40
0.0
 40
0.0
 40
0.0
 40
0.0
 40
0.1433118385272925
 40
0.3352718540494747
 40
0.5266860806119542
 40
0.7142117604079616
 40
0.8954442647246953
 40
1.0
 40
1.0
 40
1.0
 40
1.0
 10
2051.176202800268
 20
1258.160585287872
 30
0.0
 10
2051.286972241475
 20
1258.229337770159
 30
0.0
 10
2051.546112563079
 20
1258.390181231829
 30
0.0
 10
2051.847786807879
 20
1258.692491749672
 30
0.0
 10
2052.082244640153
 20
1259.049736227151
 30
0.0
 10
2052.189667555464
 20
1259.426252294061
 30
0.0
 10
2052.192476187573
 20
1259.754051794839
 30
0.0
 10
2052.116566154753
 20
1259.938512379874
 30
0.0
 10
2052.088794440607
 20
1260.005997354501
 30
0.0
  0
SPLINE
  5
8CC
330
8BE
100
AcDbEntity
  8
0
  6
Continuous
 62
     7
370
    15
100
AcDbSpline
210
0.0
220
0.0
230
1.0
 70
     8
 71
     3
 72
    13
 73
     9
 74
     0
 42
0.0000000001
 43
0.0000000001
 40
0.0
 40
0.0
 40
0.0
 40
0.0
 40
0.036441817384293
 40
0.2509976332275351
 40
0.4627264517160747
 40
0.6768866254131513
 40
0.8973264011731968
 40
1.0
 40
1.0
 40
1.0
 40
1.0
 10
2045.242556797753
 20
1259.466874247895
 30
0.0
 10
2045.237433109686
 20
1259.446297484011
 30
0.0
 10
2045.202143059124
 20
1259.304572416353
 30
0.0
 10
2045.251019625614
 20
1259.037117973555
 30
0.0
 10
2045.390314326529
 20
1258.689968396401
 30
0.0
 10
2045.647744000421
 20
1258.376005981807
 30
0.0
 10
2045.921664330671
 20
1258.140884899906
 30
0.0
 10
2046.138453633624
 20
1258.030339997494
 30
0.0
 10
2046.20734133581
 20
1257.99521287539
 30
0.0
  0
LINE
  5
8CD
330
8BE
100
AcDbEntity
  8
0
  6
Continuous
 62
     7
370
    15
100
AcDbLine
 10
2031.308803908731
 20
1287.973033237638
 30
0.0
 11
2030.873764794369
 21
1290.709842312581
 31
0.0
  0
LINE
  5
8CE
330
8BE
100
AcDbEntity
  8
0
  6
Continuous
 62
     7
370
    15
100
AcDbLine
 10
2024.505492979948
 20
1290.365732383735
 30
0.0
 11
2024.367893116951
 21
1287.597980729158
 31
0.0
  0
SPLINE
  5
8CF
330
8BE
100
AcDbEntity
  8
0
  6
Continuous
 62
     7
370
    15
100
AcDbSpline
210
0.0
220
0.0
230
1.0
 70
     8
 71
     3
 72
    13
 73
     9
 74
     0
 42
0.0000000001
 43
0.0000000001
 40
0.0
 40
0.0
 40
0.0
 40
0.0
 40
0.1433118385272678
 40
0.3352718540494655
 40
0.5266860806119843
 40
0.7142117604079871
 40
0.8954442647247049
 40
1.0
 40
1.0
 40
1.0
 40
1.0
 10
2030.316552755265
 20
1286.370113012595
 30
0.0
 10
2030.427322196473
 20
1286.438865494882
 30
0.0
 10
2030.686462518076
 20
1286.599708956552
 30
0.0
 10
2030.988136762876
 20
1286.902019474395
 30
0.0
 10
2031.22259459515
 20
1287.259263951874
 30
0.0
 10
2031.330017510461
 20
1287.635780018784
 30
0.0
 10
2031.332826142569
 20
1287.963579519562
 30
0.0
 10
2031.25691610975
 20
1288.148040104597
 30
0.0
 10
2031.229144395604
 20
1288.215525079224
 30
0.0
  0
SPLINE
  5
8D0
330
8BE
100
AcDbEntity
  8
0
  6
Continuous
 62
     7
370
    15
100
AcDbSpline
210
0.0
220
0.0
230
1.0
 70
     8
 71
     3
 72
    13
 73
     9
 74
     0
 42
0.0000000001
 43
0.0000000001
 40
0.0
 40
0.0
 40
0.0
 40
0.0
 40
0.0364418173842751
 40
0.2509976332275227
 40
0.4627264517160513
 40
0.6768866254131289
 40
0.8973264011731714
 40
1.0
 40
1.0
 40
1.0
 40
1.0
 10
2024.38290675275
 20
1287.676401972618
 30
0.0
 10
2024.377783064684
 20
1287.655825208734
 30
0.0
 10
2024.342493014121
 20
1287.514100141076
 30
0.0
 10
2024.391369580611
 20
1287.246645698278
 30
0.0
 10
2024.530664281526
 20
1286.899496121123
 30
0.0
 10
2024.788093955418
 20
1286.58553370653
 30
0.0
 10
2025.062014285668
 20
1286.350412624629
 30
0.0
 10
2025.27880358862
 20
1286.239867722217
 30
0.0
 10
2025.347691290807
 20
1286.204740600113
 30
0.0
  0
LINE
  5
8D1
330
8BE
100
AcDbEntity
  8
0
  6
Continuous
 62
     7
370
    15
100
AcDbLine
 10
2010.450264685848
 20
1316.149312566495
 30
0.0
 11
2010.007466485639
 21
1318.889333386075
 31
0.0
  0
LINE
  5
8D2
330
8BE
100
AcDbEntity
  8
0
  6
Continuous
 62
     7
370
    15
100
AcDbLine
 10
2003.640054301334
 20
1318.52775493465
 30
0.0
 11
2003.510290822662
 21
1315.75522075498
 31
0.0
  0
SPLINE
  5
8D3
330
8BE
100
AcDbEntity
  8
0
  6
Continuous
 62
     7
370
    15
100
AcDbSpline
210
0.0
220
0.0
230
1.0
 70
     8
 71
     3
 72
    13
 73
     9
 74
     0
 42
0.0000000001
 43
0.0000000001
 40
0.0
 40
0.0
 40
0.0
 40
0.0
 40
0.1434448758053028
 40
0.3353882958044685
 40
0.5268293972709668
 40
0.7143837082450517
 40
0.8955622319550604
 40
0.9999999999999998
 40
0.9999999999999998
 40
0.9999999999999998
 40
0.9999999999999998
 10
2009.458323281727
 20
1314.547153053726
 30
0.0
 10
2009.569187286715
 20
1314.615967650996
 30
0.0
 10
2009.828398286693
 20
1314.776862980127
 30
0.0
 10
2010.130121155203
 20
1315.078848806066
 30
0.0
 10
2010.364560271169
 20
1315.435459459099
 30
0.0
 10
2010.471931872269
 20
1315.81117220137
 30
0.0
 10
2010.474589405566
 20
1316.138153365161
 30
0.0
 10
2010.398576423874
 20
1316.32189057069
 30
0.0
 10
2010.370781699345
 20
1316.389075476475
 30
0.0
  0
SPLINE
  5
8D4
330
8BE
100
AcDbEntity
  8
0
  6
Continuous
 62
     7
370
    15
100
AcDbSpline
210
0.0
220
0.0
230
1.0
 70
     8
 71
     3
 72
    13
 73
     9
 74
     0
 42
0.0000000001
 43
0.0000000001
 40
0.0
 40
0.0
 40
0.0
 40
0.0
 40
0.0361851342092793
 40
0.2508370791325854
 40
0.4625877624486579
 40
0.6767687856965193
 40
0.8973159810964467
 40
1.0
 40
1.0
 40
1.0
 40
1.0
 10
2003.525329421049
 20
1315.836094854231
 30
0.0
 10
2003.520251242232
 20
1315.815723986689
 30
0.0
 10
2003.485049064055
 20
1315.674512159645
 30
0.0
 10
2003.534072321252
 20
1315.408026745206
 30
0.0
 10
2003.673519530929
 20
1315.062249020665
 30
0.0
 10
2003.931008087246
 20
1314.749936216115
 30
0.0
 10
2004.204859624548
 20
1314.516295111492
 30
0.0
 10
2004.421573051221
 20
1314.406650543304
 30
0.0
 10
2004.490418523491
 20
1314.371818681731
 30
0.0
  0
LINE
  5
8D5
330
8BE
100
AcDbEntity
  8
0
  6
Continuous
 62
     7
370
    15
100
AcDbLine
 10
2025.860631931362
 20
1239.760919414936
 30
0.0
 11
2025.510954832422
 21
1239.559055122521
 31
0.0
  0
LINE
  5
8D6
330
8BE
100
AcDbEntity
  8
0
  6
Continuous
 62
     7
370
    15
100
AcDbLine
 10
1996.936677204144
 20
1250.756622651097
 30
0.0
 11
1998.937624734426
 21
1251.911745072857
 31
0.0
  0
LINE
  5
8D7
330
8BE
100
AcDbEntity
  8
0
  6
Continuous
 62
     7
370
    15
100
AcDbLine
 10
1994.648380134096
 20
1256.16618238601
 30
0.0
 11
1993.625442000443
 21
1255.575652771229
 31
0.0
  0
LINE
  5
8D8
330
8BE
100
AcDbEntity
  8
0
  6
Continuous
 62
     7
370
    15
100
AcDbLine
 10
1996.329562296221
 20
1248.133724092933
 30
0.0
 11
2001.005385232695
 21
1250.833019218047
 31
0.0
  0
LINE
  5
8D9
330
8BE
100
AcDbEntity
  8
0
  6
Continuous
 62
     7
370
    15
100
AcDbLine
 10
1996.241087574808
 20
1254.185228896088
 30
0.0
 11
1996.241087574808
 21
1254.838461545597
 31
0.0
  0
ARC
  5
8DA
330
8BE
100
AcDbEntity
  8
0
  6
Continuous
 62
     7
370
    15
100
AcDbCircle
 10
1995.473479524125
 20
1254.803531119466
 30
0.0
 40
0.768402403785971
100
AcDbArc
 50
2.60547848564986
 51
57.39452165998082
  0
LINE
  5
8DB
330
8BE
100
AcDbEntity
  8
0
  6
Continuous
 62
     7
370
    15
100
AcDbLine
 10
1995.887534184215
 20
1255.450833979495
 30
0.0
 11
1989.170019762943
 21
1259.328772510653
 31
0.0
  0
ARC
  5
8DC
330
8BE
100
AcDbEntity
  8
0
  6
Continuous
 62
     7
370
    15
100
AcDbCircle
 10
1989.032003556063
 20
1259.159567731116
 30
0.0
 40
0.2183545987143006
100
AcDbArc
 50
50.79671476430084
 51
189.2140369904564
  0
LINE
  5
8DD
330
8BE
100
AcDbEntity
  8
0
  6
Continuous
 62
     7
370
    15
100
AcDbLine
 10
1988.81646637235
 20
1259.124604132666
 30
0.0
 11
1988.81646637235
 21
1254.225359261351
 31
0.0
  0
ARC
  5
8DE
330
8BE
100
AcDbEntity
  8
0
  6
Continuous
 62
     7
370
    15
100
AcDbCircle
 10
1989.584074423033
 20
1254.260289687482
 30
0.0
 40
0.7684024037860873
100
AcDbArc
 50
182.6054784856628
 51
237.3945216599699
  0
LINE
  5
8DF
330
8BE
100
AcDbEntity
  8
0
  6
Continuous
 62
     7
370
    15
100
AcDbLine
 10
1989.170019762943
 20
1253.612986827453
 30
0.0
 11
1993.388305420858
 21
1251.177822351072
 31
0.0
  0
LWPOLYLINE
  5
8E0
330
8BE
100
AcDbEntity
  8
0
  6
Continuous
 62
     7
370
    15
100
AcDbPolyline
 90
        9
 70
   128
 43
0.0
 10
1993.741075746502
 20
1251.409600526261
 10
1993.73849263336
 20
1251.327729915274
 10
1993.721291301217
 20
1251.256644405704
 10
1993.690189802679
 20
1251.199311391878
 10
1993.646486439056
 20
1251.158124183777
 10
1993.592005564059
 20
1251.134802100689
 10
1993.529021427956
 20
1251.130318699916
 10
1993.460163241245
 20
1251.144861136591
 10
1993.388305420858
 20
1251.177822351072
  0
LINE
  5
8E1
330
8BE
100
AcDbEntity
  8
0
  6
Continuous
 62
     7
370
    15
100
AcDbLine
 10
1993.741075746502
 20
1251.409600526261
 30
0.0
 11
1993.522651357958
 21
1255.319120570792
 31
0.0
  0
LWPOLYLINE
  5
8E2
330
8BE
100
AcDbEntity
  8
0
  6
Continuous
 62
     7
370
    15
100
AcDbPolyline
 90
        9
 70
   128
 43
0.0
 10
1993.875421683602
 20
1255.550898745982
 10
1993.803563863215
 20
1255.583859960462
 10
1993.734705676503
 20
1255.598402397138
 10
1993.671721540401
 20
1255.593918996364
 10
1993.617240665404
 20
1255.570596913276
 10
1993.573537301781
 20
1255.529409705175
 10
1993.542435803243
 20
1255.472076691348
 10
1993.5252344711
 20
1255.400991181779
 10
1993.522651357958
 20
1255.319120570792
  0
LINE
  5
8E3
330
8BE
100
AcDbEntity
  8
0
  6
Continuous
 62
     7
370
    15
100
AcDbLine
 10
1993.875421683602
 20
1255.550898745982
 30
0.0
 11
1996.241087574808
 21
1254.185228896088
 31
0.0
  0
LINE
  5
8E4
330
8BE
100
AcDbEntity
  8
0
  6
Continuous
 62
     7
370
    15
100
AcDbLine
 10
2038.658798828365
 20
1219.736207509611
 30
0.0
 11
2040.072552654422
 21
1218.920064797914
 31
0.0
  0
LINE
  5
8E5
330
8BE
100
AcDbEntity
  8
0
  6
Continuous
 62
     7
370
    15
100
AcDbLine
 10
2038.658798828365
 20
1223.002370757154
 30
0.0
 11
2038.658798828365
 21
1219.736207509611
 31
0.0
  0
LINE
  5
8E6
330
8BE
100
AcDbEntity
  8
0
  6
Continuous
 62
     7
370
    15
100
AcDbLine
 10
2035.901082381737
 20
1224.594366575208
 30
0.0
 11
2038.658798828365
 21
1223.002370757154
 31
0.0
  0
LINE
  5
8E7
330
8BE
100
AcDbEntity
  8
0
  6
Continuous
 62
     7
370
    15
100
AcDbLine
 10
2032.49916367834
 20
1223.29208919265
 30
0.0
 11
2033.072195520675
 21
1222.961284951437
 31
0.0
  0
LINE
  5
8E8
330
8BE
100
AcDbEntity
  8
0
  6
Continuous
 62
     7
370
    15
100
AcDbLine
 10
2032.49916367834
 20
1236.765012588765
 30
0.0
 11
2032.49916367834
 21
1223.29208919265
 31
0.0
  0
LINE
  5
8E9
330
8BE
100
AcDbEntity
  8
0
  6
Continuous
 62
     7
370
    15
100
AcDbLine
 10
2027.195862819441
 20
1239.663466406982
 30
0.0
 11
2032.49916367834
 21
1236.765012588765
 31
0.0
  0
LINE
  5
8EA
330
8BE
100
AcDbEntity
  8
0
  6
Continuous
 62
     7
370
    15
100
AcDbLine
 10
2027.195862819441
 20
1239.010002196215
 30
0.0
 11
2027.195862819441
 21
1239.663466406982
 31
0.0
  0
LINE
  5
8EB
330
8BE
100
AcDbEntity
  8
0
  6
Continuous
 62
     7
370
    15
100
AcDbLine
 10
2016.23570771105
 20
1245.173856900464
 30
0.0
 11
2027.195862819441
 21
1239.010002196215
 31
0.0
  0
LINE
  5
8EC
330
8BE
100
AcDbEntity
  8
0
  6
Continuous
 62
     7
370
    15
100
AcDbLine
 10
2016.23570771105
 20
1242.887542627183
 30
0.0
 11
2016.23570771105
 21
1245.173856900464
 31
0.0
  0
LINE
  5
8ED
330
8BE
100
AcDbEntity
  8
0
  6
Continuous
 62
     7
370
    15
100
AcDbLine
 10
1997.143824619013
 20
1252.847549081338
 30
0.0
 11
2016.23570771105
 21
1242.887542627183
 31
0.0
  0
LINE
  5
8EE
330
8BE
100
AcDbEntity
  8
0
  6
Continuous
 62
     7
370
    15
100
AcDbLine
 10
1997.143824619013
 20
1251.214467457567
 30
0.0
 11
1997.143824619013
 21
1252.847549081338
 31
0.0
  0
ARC
  5
8EF
330
8BE
100
AcDbEntity
  8
0
  6
Continuous
 62
     7
370
    15
100
AcDbCircle
 10
1996.712750251586
 20
1251.144540260666
 30
0.0
 40
0.4367091974284662
100
AcDbArc
 50
230.7967147642825
 51
9.214036990469226
  0
ARC
  5
8F0
330
8BE
100
AcDbEntity
  8
0
  6
Continuous
 62
     7
370
    15
100
AcDbCircle
 10
1997.264827158007
 20
1252.10073642165
 30
0.0
 40
1.536804807572118
100
AcDbArc
 50
182.6054784856628
 51
237.3945216599699
  0
LINE
  5
8F1
330
8BE
100
AcDbEntity
  8
0
  6
Continuous
 62
     7
370
    15
100
AcDbLine
 10
1995.729611056639
 20
1252.60245413771
 30
0.0
 11
1995.729611056639
 21
1252.03087556939
 31
0.0
  0
LINE
  5
8F2
330
8BE
100
AcDbEntity
  8
0
  6
Continuous
 62
     7
370
    15
100
AcDbLine
 10
1994.66895088486
 20
1253.214760221577
 30
0.0
 11
1995.729611056639
 21
1252.60245413771
 31
0.0
  0
LINE
  5
8F3
330
8BE
100
AcDbEntity
  8
0
  6
Continuous
 62
     7
370
    15
100
AcDbLine
 10
1994.810372241097
 20
1250.683496974737
 30
0.0
 11
1994.66895088486
 21
1253.214760221577
 31
0.0
  0
LINE
  5
8F4
330
8BE
100
AcDbEntity
  8
0
  6
Continuous
 62
     7
370
    15
100
AcDbLine
 10
1995.729611056639
 20
1250.152831702053
 30
0.0
 11
1994.810372241097
 21
1250.683496974737
 31
0.0
  0
ARC
  5
8F5
330
8BE
100
AcDbEntity
  8
0
  6
Continuous
 62
     7
370
    15
100
AcDbCircle
 10
1994.735879872423
 20
1248.599304837983
 30
0.0
 40
1.844165769086439
100
AcDbArc
 50
2.60547848564986
 51
57.39452165996985
  0
ARC
  5
8F6
330
8BE
100
AcDbEntity
  8
0
  6
Continuous
 62
     7
370
    15
100
AcDbCircle
 10
1996.060849953152
 20
1248.599225224415
 30
0.0
 40
0.5240510369141982
100
AcDbArc
 50
230.7967147642825
 51
9.214036990456367
  0
LINE
  5
8F7
330
8BE
100
AcDbEntity
  8
0
  6
Continuous
 62
     7
370
    15
100
AcDbLine
 10
1989.507071382198
 20
1251.785329445546
 30
0.0
 11
1995.729611056639
 21
1248.193133753527
 31
0.0
  0
LINE
  5
8F8
330
8BE
100
AcDbEntity
  8
0
  6
Continuous
 62
     7
370
    15
100
AcDbLine
 10
1982.436003570332
 20
1264.032778123518
 30
0.0
 11
1989.507071382198
 21
1251.785329445546
 31
0.0
  0
LINE
  5
8F9
330
8BE
100
AcDbEntity
  8
0
  6
Continuous
 62
     7
370
    15
100
AcDbLine
 10
1982.436003570332
 20
1331.805665510035
 30
0.0
 11
1982.436003570332
 21
1264.032778123518
 31
0.0
  0
LINE
  5
8FA
330
8BE
100
AcDbEntity
  8
0
  6
Continuous
 62
     7
370
    15
100
AcDbLine
 10
1987.951436463587
 20
1328.621673873926
 30
0.0
 11
1982.436003570332
 21
1331.805665510035
 31
0.0
  0
LINE
  5
8FB
330
8BE
100
AcDbEntity
  8
0
  6
Continuous
 62
     7
370
    15
100
AcDbLine
 10
1987.951436463587
 20
1326.988592250155
 30
0.0
 11
1987.951436463587
 21
1328.621673873926
 31
0.0
  0
LINE
  5
8FC
330
8BE
100
AcDbEntity
  8
0
  6
Continuous
 62
     7
370
    15
100
AcDbLine
 10
1983.850217132706
 20
1329.356175774441
 30
0.0
 11
1987.951436463587
 21
1326.988592250155
 31
0.0
  0
LINE
  5
8FD
330
8BE
100
AcDbEntity
  8
0
  6
Continuous
 62
     7
370
    15
100
AcDbLine
 10
1983.850217132706
 20
1327.396477825915
 30
0.0
 11
1983.850217132706
 21
1329.356175774441
 31
0.0
  0
LINE
  5
8FE
330
8BE
100
AcDbEntity
  8
0
  6
Continuous
 62
     7
370
    15
100
AcDbLine
 10
1989.507071382198
 20
1324.130845378624
 30
0.0
 11
1983.850217132706
 21
1327.396477825915
 31
0.0
  0
LINE
  5
8FF
330
8BE
100
AcDbEntity
  8
0
  6
Continuous
 62
     7
370
    15
100
AcDbLine
 10
1989.507071382198
 20
1316.781978071652
 30
0.0
 11
1989.507071382198
 21
1324.130845378624
 31
0.0
  0
LINE
  5
900
330
8BE
100
AcDbEntity
  8
0
  6
Continuous
 62
     7
370
    15
100
AcDbLine
 10
2010.366721427201
 20
1306.373040046039
 30
0.0
 11
1989.507071382198
 21
1316.781978071652
 31
0.0
  0
LINE
  5
901
330
8BE
100
AcDbEntity
  8
0
  6
Continuous
 62
     7
370
    15
100
AcDbLine
 10
2010.366721427201
 20
1288.654104428118
 30
0.0
 11
2010.366721427201
 21
1306.373040046039
 31
0.0
  0
LINE
  5
902
330
8BE
100
AcDbEntity
  8
0
  6
Continuous
 62
     7
370
    15
100
AcDbLine
 10
2031.226371472204
 20
1278.163512321316
 30
0.0
 11
2010.366721427201
 21
1288.654104428118
 31
0.0
  0
LINE
  5
903
330
8BE
100
AcDbEntity
  8
0
  6
Continuous
 62
     7
370
    15
100
AcDbLine
 10
2031.226371472204
 20
1260.444576703395
 30
0.0
 11
2031.226371472204
 21
1278.163512321316
 31
0.0
  0
LINE
  5
904
330
8BE
100
AcDbEntity
  8
0
  6
Continuous
 62
     7
370
    15
100
AcDbLine
 10
2052.086021517208
 20
1249.953984596593
 30
0.0
 11
2031.226371472204
 21
1260.444576703395
 31
0.0
  0
LINE
  5
905
330
8BE
100
AcDbEntity
  8
0
  6
Continuous
 62
     7
370
    15
100
AcDbLine
 10
2052.086021517208
 20
1232.235048978673
 30
0.0
 11
2052.086021517208
 21
1249.953984596593
 31
0.0
  0
LINE
  5
906
330
8BE
100
AcDbEntity
  8
0
  6
Continuous
 62
     7
370
    15
100
AcDbLine
 10
2072.94567156221
 20
1221.74445687187
 30
0.0
 11
2052.086021517208
 21
1232.235048978673
 31
0.0
  0
LINE
  5
907
330
8BE
100
AcDbEntity
  8
0
  6
Continuous
 62
     7
370
    15
100
AcDbLine
 10
2072.94567156221
 20
1206.230181446041
 30
0.0
 11
2072.94567156221
 21
1221.74445687187
 31
0.0
  0
LINE
  5
908
330
8BE
100
AcDbEntity
  8
0
  6
Continuous
 62
     7
370
    15
100
AcDbLine
 10
2086.734253795349
 20
1199.349696988432
 30
0.0
 11
2072.94567156221
 21
1206.230181446041
 31
0.0
  0
LINE
  5
909
330
8BE
100
AcDbEntity
  8
0
  6
Continuous
 62
     7
370
    15
100
AcDbLine
 10
2086.734253795349
 20
1194.450452117118
 30
0.0
 11
2086.734253795349
 21
1199.349696988432
 31
0.0
  0
LINE
  5
90A
330
8BE
100
AcDbEntity
  8
0
  6
Continuous
 62
     7
370
    15
100
AcDbLine
 10
2088.148467357722
 20
1193.634044005295
 30
0.0
 11
2086.734253795349
 21
1194.450452117118
 31
0.0
  0
LINE
  5
90B
330
8BE
100
AcDbEntity
  8
0
  6
Continuous
 62
     7
370
    15
100
AcDbLine
 10
2088.148467357722
 20
1198.53328887661
 30
0.0
 11
2088.148467357722
 21
1193.634044005295
 31
0.0
  0
LINE
  5
90C
330
8BE
100
AcDbEntity
  8
0
  6
Continuous
 62
     7
370
    15
100
AcDbLine
 10
2089.562680920094
 20
1197.716880764787
 30
0.0
 11
2088.148467357722
 21
1198.53328887661
 31
0.0
  0
LINE
  5
90D
330
8BE
100
AcDbEntity
  8
0
  6
Continuous
 62
     7
370
    15
100
AcDbLine
 10
2089.562680920094
 20
1191.184554269701
 30
0.0
 11
2089.562680920094
 21
1197.716880764787
 31
0.0
  0
LINE
  5
90E
330
8BE
100
AcDbEntity
  8
0
  6
Continuous
 62
     7
370
    15
100
AcDbLine
 10
2071.3900366436
 20
1200.840866117526
 30
0.0
 11
2089.562680920094
 21
1191.184554269701
 31
0.0
  0
LINE
  5
90F
330
8BE
100
AcDbEntity
  8
0
  6
Continuous
 62
     7
370
    15
100
AcDbLine
 10
2045.659155962112
 20
1215.694987356088
 30
0.0
 11
2071.3900366436
 21
1200.840866117526
 31
0.0
  0
LINE
  5
910
330
8BE
100
AcDbEntity
  8
0
  6
Continuous
 62
     7
370
    15
100
AcDbLine
 10
2045.659155962112
 20
1215.694987356088
 30
0.0
 11
2045.659155962112
 21
1218.961150603632
 31
0.0
  0
LINE
  5
911
330
8BE
100
AcDbEntity
  8
0
  6
Continuous
 62
     7
370
    15
100
AcDbLine
 10
2045.659155962112
 20
1218.961150603632
 30
0.0
 11
2042.901439515484
 21
1220.553146421686
 31
0.0
  0
LINE
  5
912
330
8BE
100
AcDbEntity
  8
0
  6
Continuous
 62
     7
370
    15
100
AcDbLine
 10
2089.562680920094
 20
1197.716880764787
 30
0.0
 11
2103.704816543825
 21
1205.880961883014
 31
0.0
  0
LINE
  5
913
330
8BE
100
AcDbEntity
  8
0
  6
Continuous
 62
     7
370
    15
100
AcDbLine
 10
2088.148467357722
 20
1198.53328887661
 30
0.0
 11
2102.290602981452
 21
1206.697369994836
 31
0.0
  0
LINE
  5
914
330
8BE
100
AcDbEntity
  8
0
  6
Continuous
 62
     7
370
    15
100
AcDbLine
 10
2103.704816543825
 20
1205.880961883014
 30
0.0
 11
2102.290602981452
 21
1206.697369994836
 31
0.0
  0
LINE
  5
915
330
8BE
100
AcDbEntity
  8
0
  6
Continuous
 62
     7
370
    15
100
AcDbLine
 10
2089.562680920094
 20
1191.184554269701
 30
0.0
 11
2103.704816543825
 21
1199.348635387928
 31
0.0
  0
LINE
  5
916
330
8BE
100
AcDbEntity
  8
0
  6
Continuous
 62
     7
370
    15
100
AcDbLine
 10
2103.704816543825
 20
1199.348635387928
 30
0.0
 11
2103.704816543825
 21
1205.880961883014
 31
0.0
  0
LINE
  5
917
330
8BE
100
AcDbEntity
  8
0
  6
Continuous
 62
     7
370
    15
100
AcDbLine
 10
2086.734253795349
 20
1199.349696988432
 30
0.0
 11
2100.876389419079
 21
1207.513778106659
 31
0.0
  0
LINE
  5
918
330
8BE
100
AcDbEntity
  8
0
  6
Continuous
 62
     7
370
    15
100
AcDbLine
 10
2072.94567156221
 20
1206.230181446041
 30
0.0
 11
2087.087807185942
 21
1214.394262564268
 31
0.0
  0
LWPOLYLINE
  5
919
330
8BE
100
AcDbEntity
  8
0
  6
Continuous
 62
     7
370
    15
100
AcDbPolyline
 90
       26
 70
   128
 43
0.0
 10
2082.598874466603
 20
1208.253042189556
 10
2082.409116038256
 20
1208.048774772082
 10
2082.171764249793
 20
1207.675500641993
 10
2082.05890020304
 20
1207.290290904852
 10
2082.074151441323
 20
1206.905526518563
 10
2082.217027777295
 20
1206.533574127085
 10
2082.482937047958
 20
1206.186388586325
 10
2082.863332710563
 20
1205.875128725228
 10
2083.345988535524
 20
1205.609798691835
 10
2083.915391567495
 20
1205.398926411733
 10
2084.553240724522
 20
1205.249289493511
 10
2085.239035009875
 20
1205.165697390843
 10
2085.950732430949
 20
1205.150836822687
 10
2086.665458447044
 20
1205.205185419933
 10
2087.360241175924
 20
1205.326996373945
 10
2088.012749729013
 20
1205.512354580437
 10
2088.602011944531
 20
1205.755302474137
 10
2089.109088450023
 20
1206.048031509845
 10
2089.517681389379
 20
1206.381133135494
 10
2089.814658249336
 20
1206.743901190759
 10
2089.990473949263
 20
1207.124676011858
 10
2090.039477627902
 20
1207.511219182737
 10
2089.960094266701
 20
1207.891106887836
 10
2089.754875312206
 20
1208.25212922374
 10
2089.430416670469
 20
1208.582682635523
 10
2089.361473905235
 20
1208.637061656468
  0
LINE
  5
91A
330
8BE
100
AcDbEntity
  8
0
  6
Continuous
 62
     7
370
    15
100
AcDbLine
 10
2100.876389419079
 20
1207.513778106659
 30
0.0
 11
2087.087807185942
 21
1214.394262564268
 31
0.0
  0
LINE
  5
91B
330
8BE
100
AcDbEntity
  8
0
  6
Continuous
 62
     7
370
    15
100
AcDbLine
 10
2086.734253795349
 20
1194.450452117118
 30
0.0
 11
2088.148467357722
 21
1195.26686022894
 31
0.0
  0
LINE
  5
91C
330
8BE
100
AcDbEntity
  8
0
  6
Continuous
 62
     7
370
    15
100
AcDbLine
 10
2100.876389419079
 20
1205.880961883014
 30
0.0
 11
2100.876389419079
 21
1207.513778106659
 31
0.0
  0
LINE
  5
91D
330
8BE
100
AcDbEntity
  8
0
  6
Continuous
 62
     7
370
    15
100
AcDbLine
 10
2072.94567156221
 20
1221.74445687187
 30
0.0
 11
2087.087807185942
 21
1229.908537990098
 31
0.0
  0
LINE
  5
91E
330
8BE
100
AcDbEntity
  8
0
  6
Continuous
 62
     7
370
    15
100
AcDbLine
 10
2087.087807185942
 20
1214.394262564268
 30
0.0
 11
2087.087807185942
 21
1229.908537990098
 31
0.0
  0
LINE
  5
91F
330
8BE
100
AcDbEntity
  8
0
  6
Continuous
 62
     7
370
    15
100
AcDbLine
 10
2052.086021517208
 20
1232.235048978673
 30
0.0
 11
2066.228157140939
 21
1240.399130096899
 31
0.0
  0
LWPOLYLINE
  5
920
330
8BE
100
AcDbEntity
  8
0
  6
Continuous
 62
     7
370
    15
100
AcDbPolyline
 90
       26
 70
   128
 43
0.0
 10
2066.130102626225
 20
1232.042026547313
 10
2065.936762913363
 20
1231.833957861573
 10
2065.699460102259
 20
1231.459799845388
 10
2065.586662405467
 20
1231.073392701739
 10
2065.601995233771
 20
1230.687155874163
 10
2065.744965777453
 20
1230.313503332093
 10
2066.010978845603
 20
1229.964444575675
 10
2066.391484559335
 20
1229.651198640545
 10
2066.874253151928
 20
1229.383833508799
 10
2067.443768043592
 20
1229.170942515759
 10
2068.081724557112
 20
1229.01936815311
 10
2068.76761824523
 20
1228.933982145583
 10
2069.479403920455
 20
1228.917528869715
 10
2070.194204205526
 20
1228.97053714733
 10
2070.889044831141
 20
1229.091303248771
 10
2071.541593047876
 20
1229.275945652171
 10
2072.130875419127
 20
1229.51852979876
 10
2072.637951924619
 20
1229.811258834468
 10
2073.046524708242
 20
1230.144724207228
 10
2073.343461904554
 20
1230.508208065586
 10
2073.519219707745
 20
1230.890027739256
 10
2073.568149117408
 20
1231.277911229765
 10
2073.488677502056
 20
1231.659391642576
 10
2073.283359144796
 20
1232.022207883339
 10
2072.958793146566
 20
1232.35469873955
 10
2072.892440522413
 20
1232.407429859248
  0
LINE
  5
921
330
8BE
100
AcDbEntity
  8
0
  6
Continuous
 62
     7
370
    15
100
AcDbLine
 10
2087.087807185942
 20
1229.908537990098
 30
0.0
 11
2066.228157140939
 21
1240.399130096899
 31
0.0
  0
LWPOLYLINE
  5
922
330
8BE
100
AcDbEntity
  8
0
  6
Continuous
 62
     7
370
    15
100
AcDbPolyline
 90
       14
 70
   128
 43
0.0
 10
2087.537398295569
 20
1208.853089296234
 10
2086.947483208087
 20
1208.678024309025
 10
2086.312677806891
 20
1208.569003453787
 10
2085.65961629254
 20
1208.53060086193
 10
2085.015698827851
 20
1208.564427771056
 10
2084.407941923501
 20
1208.669064923106
 10
2083.861844920312
 20
1208.84012211143
 10
2083.400320126656
 20
1209.070422378409
 10
2083.042731498627
 20
1209.350303135338
 10
2082.804082196592
 20
1209.668021570642
 10
2082.694385105385
 20
1210.010247336924
 10
2082.718242728895
 20
1210.36262184543
 10
2082.874654085203
 20
1210.710360701896
 10
2083.157056704257
 20
1211.038874007704
  0
LWPOLYLINE
  5
923
330
8BE
100
AcDbEntity
  8
0
  6
Continuous
 62
     7
370
    15
100
AcDbPolyline
 90
        4
 70
   128
 43
0.0
 10
2087.537398295569
 20
1208.853089296234
 10
2087.550918883438
 20
1208.746941463681
 10
2087.703290589936
 20
1207.549969142704
 10
2087.759861220856
 20
1207.105250135071
  0
ARC
  5
924
330
8BE
100
AcDbEntity
  8
0
  6
Continuous
 62
     7
370
    15
100
AcDbCircle
 10
2086.624453706079
 20
1210.296857978473
 30
0.0
 40
3.387552339178988
100
AcDbArc
 50
289.5829045589063
 51
310.4117189083988
  0
LWPOLYLINE
  5
925
330
8BE
100
AcDbEntity
  8
0
  6
Continuous
 62
     7
370
    15
100
AcDbPolyline
 90
        3
 70
   128
 43
0.0
 10
2088.820521392635
 20
1207.717556218938
 10
2088.763950761716
 20
1208.162275226571
 10
2088.598058467349
 20
1209.465395380101
  0
LWPOLYLINE
  5
926
330
8BE
100
AcDbEntity
  8
0
  6
Continuous
 62
     7
370
    15
100
AcDbPolyline
 90
       14
 70
   128
 43
0.0
 10
2084.217716876036
 20
1211.651180091571
 10
2084.807631963518
 20
1211.82624507878
 10
2085.442437364714
 20
1211.935265934017
 10
2086.095498879066
 20
1211.973668525875
 10
2086.739416343753
 20
1211.939841616749
 10
2087.347173248104
 20
1211.835204464699
 10
2087.893270251293
 20
1211.664147276375
 10
2088.354795044949
 20
1211.433847009396
 10
2088.712383672978
 20
1211.153966252467
 10
2088.951032975013
 20
1210.836247817163
 10
2089.06073006622
 20
1210.49402205088
 10
2089.03687244271
 20
1210.141647542375
 10
2088.880461086402
 20
1209.793908685909
 10
2088.598058467349
 20
1209.465395380101
  0
LWPOLYLINE
  5
927
330
8BE
100
AcDbEntity
  8
0
  6
Continuous
 62
     7
370
    15
100
AcDbPolyline
 90
        3
 70
   128
 43
0.0
 10
2084.217716876036
 20
1211.651180091571
 10
2084.215814641016
 20
1211.552728227422
 10
2084.1959626765
 20
1210.520461289552
  0
LINE
  5
928
330
8BE
100
AcDbEntity
  8
0
  6
Continuous
 62
     7
370
    15
100
AcDbLine
 10
2052.086021517208
 20
1249.953984596593
 30
0.0
 11
2066.228157140939
 21
1258.11806571482
 31
0.0
  0
LINE
  5
929
330
8BE
100
AcDbEntity
  8
0
  6
Continuous
 62
     7
370
    15
100
AcDbLine
 10
2031.226371472204
 20
1260.444576703395
 30
0.0
 11
2045.368507095936
 21
1268.608657821622
 31
0.0
  0
LWPOLYLINE
  5
92A
330
8BE
100
AcDbEntity
  8
0
  6
Continuous
 62
     7
370
    15
100
AcDbPolyline
 90
       26
 70
   128
 43
0.0
 10
2045.270452581222
 20
1260.251554272036
 10
2045.07711286836
 20
1260.043485586296
 10
2044.839810057256
 20
1259.66932757011
 10
2044.727012360464
 20
1259.282920426462
 10
2044.742345188768
 20
1258.896683598886
 10
2044.88531573245
 20
1258.523031056816
 10
2045.1513288006
 20
1258.173972300397
 10
2045.531834514332
 20
1257.860726365268
 10
2046.014603106925
 20
1257.593361233522
 10
2046.584117998589
 20
1257.380470240482
 10
2047.222074512109
 20
1257.228895877833
 10
2047.907968200227
 20
1257.143509870306
 10
2048.619753875451
 20
1257.127056594438
 10
2049.334554160522
 20
1257.180064872053
 10
2050.029394786137
 20
1257.300830973494
 10
2050.681943002873
 20
1257.485473376894
 10
2051.271225374124
 20
1257.728057523483
 10
2051.778301879616
 20
1258.020786559191
 10
2052.186874663239
 20
1258.354251931951
 10
2052.48381185955
 20
1258.717735790308
 10
2052.659569662742
 20
1259.099555463979
 10
2052.708499072405
 20
1259.487438954487
 10
2052.629027457053
 20
1259.868919367299
 10
2052.423709099793
 20
1260.231735608062
 10
2052.099143101564
 20
1260.564226464273
 10
2052.03279047741
 20
1260.616957583971
  0
LINE
  5
92B
330
8BE
100
AcDbEntity
  8
0
  6
Continuous
 62
     7
370
    15
100
AcDbLine
 10
2066.228157140939
 20
1258.11806571482
 30
0.0
 11
2045.368507095936
 21
1268.608657821622
 31
0.0
  0
LINE
  5
92C
330
8BE
100
AcDbEntity
  8
0
  6
Continuous
 62
     7
370
    15
100
AcDbLine
 10
2066.228157140939
 20
1240.399130096899
 30
0.0
 11
2066.228157140939
 21
1258.11806571482
 31
0.0
  0
LINE
  5
92D
330
8BE
100
AcDbEntity
  8
0
  6
Continuous
 62
     7
370
    15
100
AcDbLine
 10
2084.818112027896
 20
1210.210009578839
 30
0.0
 11
2083.580675160819
 21
1209.495652480994
 31
0.0
  0
LINE
  5
92E
330
8BE
100
AcDbEntity
  8
0
  6
Continuous
 62
     7
370
    15
100
AcDbLine
 10
2083.580675160819
 20
1209.495652480994
 30
0.0
 11
2084.638906104854
 21
1208.967596627254
 31
0.0
  0
LINE
  5
92F
330
8BE
100
AcDbEntity
  8
0
  6
Continuous
 62
     7
370
    15
100
AcDbLine
 10
2084.638906104854
 20
1208.967596627254
 30
0.0
 11
2085.87634297193
 21
1209.681953725099
 31
0.0
  0
LINE
  5
930
330
8BE
100
AcDbEntity
  8
0
  6
Continuous
 62
     7
370
    15
100
AcDbLine
 10
2085.87634297193
 20
1209.681953725099
 30
0.0
 11
2087.537398295569
 21
1208.853089296234
 31
0.0
  0
LINE
  5
931
330
8BE
100
AcDbEntity
  8
0
  6
Continuous
 62
     7
370
    15
100
AcDbLine
 10
2083.157056704257
 20
1211.038874007704
 30
0.0
 11
2084.818112027896
 21
1210.210009578839
 31
0.0
  0
ARC
  5
932
330
8BE
100
AcDbEntity
  8
0
  6
Continuous
 62
     7
370
    15
100
AcDbCircle
 10
2088.436241481235
 20
1207.217626469991
 30
0.0
 40
1.626664058027597
100
AcDbArc
 50
9.595161154916427
 51
54.69531718006499
  0
ARC
  5
933
330
8BE
100
AcDbEntity
  8
0
  6
Continuous
 62
     7
370
    15
100
AcDbCircle
 10
2083.58791789378
 20
1206.99112870564
 30
0.0
 40
1.533997077742745
100
AcDbArc
 50
130.3599451151981
 51
178.3499609771028
  0
LINE
  5
934
330
8BE
100
AcDbEntity
  8
0
  6
Continuous
 62
     7
370
    15
100
AcDbLine
 10
2085.416190048395
 20
1209.416313096661
 30
0.0
 11
2084.847055692377
 21
1209.700310394183
 31
0.0
  0
LINE
  5
935
330
8BE
100
AcDbEntity
  8
0
  6
Continuous
 62
     7
370
    15
100
AcDbLine
 10
2086.970038649372
 20
1209.712503123961
 30
0.0
 11
2086.434584417586
 21
1209.403391975566
 31
0.0
  0
LINE
  5
936
330
8BE
100
AcDbEntity
  8
0
  6
Continuous
 62
     7
370
    15
100
AcDbLine
 10
2088.820521392635
 20
1207.717556218938
 30
0.0
 11
2087.604728358299
 21
1208.324235349176
 31
0.0
  0
ARC
  5
937
330
8BE
100
AcDbEntity
  8
0
  6
Continuous
 62
     7
370
    15
100
AcDbCircle
 10
2085.854924148215
 20
1210.814804311669
 30
0.0
 40
5.296356827512053
100
AcDbArc
 50
246.0284426838554
 51
298.0982434797945
  0
LINE
  5
938
330
8BE
100
AcDbEntity
  8
0
  6
Continuous
 62
     7
370
    15
100
AcDbLine
 10
2087.003718773604
 20
1209.119394678044
 30
0.0
 11
2086.93700314371
 21
1210.294259808966
 31
0.0
  0
LINE
  5
939
330
8BE
100
AcDbEntity
  8
0
  6
Continuous
 62
     7
370
    15
100
AcDbLine
 10
2088.598058467349
 20
1209.465395380101
 30
0.0
 11
2086.93700314371
 21
1210.294259808966
 31
0.0
  0
LINE
  5
93A
330
8BE
100
AcDbEntity
  8
0
  6
Continuous
 62
     7
370
    15
100
AcDbLine
 10
2086.93700314371
 20
1210.294259808966
 30
0.0
 11
2088.174440010786
 21
1211.00861690681
 31
0.0
  0
LINE
  5
93B
330
8BE
100
AcDbEntity
  8
0
  6
Continuous
 62
     7
370
    15
100
AcDbLine
 10
2088.174440010786
 20
1211.00861690681
 30
0.0
 11
2087.116209066752
 21
1211.536672760551
 31
0.0
  0
LINE
  5
93C
330
8BE
100
AcDbEntity
  8
0
  6
Continuous
 62
     7
370
    15
100
AcDbLine
 10
2087.116209066752
 20
1211.536672760551
 30
0.0
 11
2085.878772199675
 21
1210.822315662706
 31
0.0
  0
LINE
  5
93D
330
8BE
100
AcDbEntity
  8
0
  6
Continuous
 62
     7
370
    15
100
AcDbLine
 10
2085.878772199675
 20
1210.822315662706
 30
0.0
 11
2084.217716876036
 21
1211.651180091571
 31
0.0
  0
LINE
  5
93E
330
8BE
100
AcDbEntity
  8
0
  6
Continuous
 62
     7
370
    15
100
AcDbLine
 10
2084.880735816609
 20
1209.107201948267
 30
0.0
 11
2084.818112027896
 21
1210.210009578839
 31
0.0
  0
LWPOLYLINE
  5
93F
330
8BE
100
AcDbEntity
  8
0
  6
Continuous
 62
     7
370
    15
100
AcDbPolyline
 90
       14
 70
   128
 43
0.0
 10
2071.074458044853
 20
1232.614639513846
 10
2070.484508650822
 20
1232.44019365112
 10
2069.849649879273
 20
1232.332135961595
 10
2069.196518169998
 20
1232.295000165635
 10
2068.552516630946
 20
1232.330344350547
 10
2067.944665300258
 20
1232.436685598719
 10
2067.398467480554
 20
1232.609562205625
 10
2066.93683971011
 20
1232.841720877244
 10
2066.579150265565
 20
1233.123421052754
 10
2066.340406537192
 20
1233.44284358418
 10
2066.230625371622
 20
1233.786586626249
 10
2066.254412800208
 20
1234.140227930652
 10
2066.410770786164
 20
1234.48892995283
 10
2066.693139098668
 20
1234.818062383121
  0
LWPOLYLINE
  5
940
330
8BE
100
AcDbEntity
  8
0
  6
Continuous
 62
     7
370
    15
100
AcDbPolyline
 90
        4
 70
   128
 43
0.0
 10
2071.074458044853
 20
1232.614639513846
 10
2071.087691125847
 20
1232.508605520316
 10
2071.236820615188
 20
1231.312917352815
 10
2071.292186574822
 20
1230.868675655065
  0
ARC
  5
941
330
8BE
100
AcDbEntity
  8
0
  6
Continuous
 62
     7
370
    15
100
AcDbCircle
 10
2070.163245092982
 20
1234.049082787278
 30
0.0
 40
3.374833091584442
100
AcDbArc
 50
289.5432136149399
 51
310.451409852362
  0
LWPOLYLINE
  5
942
330
8BE
100
AcDbEntity
  8
0
  6
Continuous
 62
     7
370
    15
100
AcDbPolyline
 90
        3
 70
   128
 43
0.0
 10
2072.352846746602
 20
1231.480981738932
 10
2072.297480786969
 20
1231.925223436682
 10
2072.135118216632
 20
1233.226945597713
  0
LWPOLYLINE
  5
943
330
8BE
100
AcDbEntity
  8
0
  6
Continuous
 62
     7
370
    15
100
AcDbPolyline
 90
       14
 70
   128
 43
0.0
 10
2067.753799270448
 20
1235.430368466988
 10
2068.343748664478
 20
1235.604814329714
 10
2068.978607436028
 20
1235.71287201924
 10
2069.631739145302
 20
1235.750007815199
 10
2070.275740684353
 20
1235.714663630287
 10
2070.883592015041
 20
1235.608322382116
 10
2071.429789834746
 20
1235.43544577521
 10
2071.89141760519
 20
1235.20328710359
 10
2072.249107049735
 20
1234.92158692808
 10
2072.487850778108
 20
1234.602164396654
 10
2072.597631943678
 20
1234.258421354586
 10
2072.573844515091
 20
1233.904780050182
 10
2072.417486529137
 20
1233.556078028005
 10
2072.135118216632
 20
1233.226945597713
  0
LWPOLYLINE
  5
944
330
8BE
100
AcDbEntity
  8
0
  6
Continuous
 62
     7
370
    15
100
AcDbPolyline
 90
        3
 70
   128
 43
0.0
 10
2067.753799270448
 20
1235.430368466988
 10
2067.751606087365
 20
1235.332092544365
 10
2067.728606832847
 20
1234.297312053389
  0
LINE
  5
945
330
8BE
100
AcDbEntity
  8
0
  6
Continuous
 62
     7
370
    15
100
AcDbLine
 10
2068.354565041921
 20
1233.982509444854
 30
0.0
 11
2067.117128174845
 21
1233.268152347009
 31
0.0
  0
LINE
  5
946
330
8BE
100
AcDbEntity
  8
0
  6
Continuous
 62
     7
370
    15
100
AcDbLine
 10
2067.117128174845
 20
1233.268152347009
 30
0.0
 11
2068.175595234522
 21
1232.735835354269
 31
0.0
  0
LINE
  5
947
330
8BE
100
AcDbEntity
  8
0
  6
Continuous
 62
     7
370
    15
100
AcDbLine
 10
2068.175595234522
 20
1232.735835354269
 30
0.0
 11
2069.413032101599
 21
1233.450192452114
 31
0.0
  0
LINE
  5
948
330
8BE
100
AcDbEntity
  8
0
  6
Continuous
 62
     7
370
    15
100
AcDbLine
 10
2069.413032101599
 20
1233.450192452114
 30
0.0
 11
2071.074458044853
 21
1232.614639513846
 31
0.0
  0
LINE
  5
949
330
8BE
100
AcDbEntity
  8
0
  6
Continuous
 62
     7
370
    15
100
AcDbLine
 10
2066.693139098668
 20
1234.818062383121
 30
0.0
 11
2068.354565041921
 21
1233.982509444854
 31
0.0
  0
ARC
  5
94A
330
8BE
100
AcDbEntity
  8
0
  6
Continuous
 62
     7
370
    15
100
AcDbCircle
 10
2071.955315642862
 20
1230.985504123883
 30
0.0
 40
1.635493310173544
100
AcDbArc
 50
9.392840703216085
 51
54.4142185405605
  0
ARC
  5
94B
330
8BE
100
AcDbEntity
  8
0
  6
Continuous
 62
     7
370
    15
100
AcDbCircle
 10
2067.122155033206
 20
1230.774074613741
 30
0.0
 40
1.540806139038756
100
AcDbArc
 50
130.3045671768259
 51
178.2602608531739
  0
LINE
  5
94C
330
8BE
100
AcDbEntity
  8
0
  6
Continuous
 62
     7
370
    15
100
AcDbLine
 10
2087.178832855465
 20
1210.433865129979
 30
0.0
 11
2087.116209066752
 21
1211.536672760551
 31
0.0
  0
LINE
  5
94D
330
8BE
100
AcDbEntity
  8
0
  6
Continuous
 62
     7
370
    15
100
AcDbLine
 10
2085.945487829569
 20
1209.647450531785
 30
0.0
 11
2085.878772199675
 21
1210.822315662706
 31
0.0
  0
LINE
  5
94E
330
8BE
100
AcDbEntity
  8
0
  6
Continuous
 62
     7
370
    15
100
AcDbLine
 10
2068.958728351005
 20
1233.187928479342
 30
0.0
 11
2068.381822898381
 21
1233.478061812097
 31
0.0
  0
LINE
  5
94F
330
8BE
100
AcDbEntity
  8
0
  6
Continuous
 62
     7
370
    15
100
AcDbLine
 10
2070.50467641411
 20
1233.489090408018
 30
0.0
 11
2069.960425570551
 21
1233.17490108374
 31
0.0
  0
LINE
  5
950
330
8BE
100
AcDbEntity
  8
0
  6
Continuous
 62
     7
370
    15
100
AcDbLine
 10
2072.352846746602
 20
1231.480981738932
 30
0.0
 11
2071.139769246135
 21
1232.091054353951
 31
0.0
  0
ARC
  5
951
330
8BE
100
AcDbEntity
  8
0
  6
Continuous
 62
     7
370
    15
100
AcDbCircle
 10
2069.393700664471
 20
1234.566036568259
 30
0.0
 40
5.279295348042434
100
AcDbArc
 50
245.8206971783691
 51
298.0737895659202
  0
LINE
  5
952
330
8BE
100
AcDbEntity
  8
0
  6
Continuous
 62
     7
370
    15
100
AcDbLine
 10
2031.226371472204
 20
1278.163512321316
 30
0.0
 11
2045.368507095936
 21
1286.327593439543
 31
0.0
  0
LINE
  5
953
330
8BE
100
AcDbEntity
  8
0
  6
Continuous
 62
     7
370
    15
100
AcDbLine
 10
2010.366721427201
 20
1288.654104428118
 30
0.0
 11
2024.508857050932
 21
1296.818185546345
 31
0.0
  0
LWPOLYLINE
  5
954
330
8BE
100
AcDbEntity
  8
0
  6
Continuous
 62
     7
370
    15
100
AcDbPolyline
 90
       26
 70
   128
 43
0.0
 10
2024.410802536218
 20
1288.461081996759
 10
2024.217462823357
 20
1288.253013311019
 10
2023.980160012254
 20
1287.878855294833
 10
2023.867362315461
 20
1287.492448151185
 10
2023.882695143765
 20
1287.106211323609
 10
2024.025665687447
 20
1286.732558781539
 10
2024.291678755597
 20
1286.38350002512
 10
2024.672184469329
 20
1286.070254089991
 10
2025.154953061921
 20
1285.802888958245
 10
2025.724467953586
 20
1285.589997965205
 10
2026.362424467106
 20
1285.438423602556
 10
2027.048318155224
 20
1285.353037595028
 10
2027.760103830448
 20
1285.33658431916
 10
2028.474904115519
 20
1285.389592596776
 10
2029.169744741134
 20
1285.510358698217
 10
2029.82229295787
 20
1285.695001101617
 10
2030.411575329122
 20
1285.937585248206
 10
2030.918651834614
 20
1286.230314283913
 10
2031.327224618236
 20
1286.563779656674
 10
2031.624161814547
 20
1286.927263515031
 10
2031.799919617739
 20
1287.309083188701
 10
2031.848849027402
 20
1287.69696667921
 10
2031.76937741205
 20
1288.078447092022
 10
2031.564059054789
 20
1288.441263332785
 10
2031.23949305656
 20
1288.773754188996
 10
2031.173140432407
 20
1288.826485308694
  0
LINE
  5
955
330
8BE
100
AcDbEntity
  8
0
  6
Continuous
 62
     7
370
    15
100
AcDbLine
 10
2045.368507095936
 20
1286.327593439543
 30
0.0
 11
2024.508857050932
 21
1296.818185546345
 31
0.0
  0
LINE
  5
956
330
8BE
100
AcDbEntity
  8
0
  6
Continuous
 62
     7
370
    15
100
AcDbLine
 10
2045.368507095936
 20
1268.608657821622
 30
0.0
 11
2045.368507095936
 21
1286.327593439543
 31
0.0
  0
LINE
  5
957
330
8BE
100
AcDbEntity
  8
0
  6
Continuous
 62
     7
370
    15
100
AcDbLine
 10
2070.537331023174
 20
1232.884767750985
 30
0.0
 11
2070.473692273378
 21
1234.062498535981
 31
0.0
  0
LINE
  5
958
330
8BE
100
AcDbEntity
  8
0
  6
Continuous
 62
     7
370
    15
100
AcDbLine
 10
2072.135118216632
 20
1233.226945597713
 30
0.0
 11
2070.473692273378
 21
1234.062498535981
 31
0.0
  0
LINE
  5
959
330
8BE
100
AcDbEntity
  8
0
  6
Continuous
 62
     7
370
    15
100
AcDbLine
 10
2070.473692273378
 20
1234.062498535981
 30
0.0
 11
2071.711129140455
 21
1234.776855633826
 31
0.0
  0
LINE
  5
95A
330
8BE
100
AcDbEntity
  8
0
  6
Continuous
 62
     7
370
    15
100
AcDbLine
 10
2071.711129140455
 20
1234.776855633826
 30
0.0
 11
2070.652662080778
 21
1235.309172626565
 31
0.0
  0
LINE
  5
95B
330
8BE
100
AcDbEntity
  8
0
  6
Continuous
 62
     7
370
    15
100
AcDbLine
 10
2070.652662080778
 20
1235.309172626565
 30
0.0
 11
2069.415225213702
 21
1234.594815528721
 31
0.0
  0
LINE
  5
95C
330
8BE
100
AcDbEntity
  8
0
  6
Continuous
 62
     7
370
    15
100
AcDbLine
 10
2069.415225213702
 20
1234.594815528721
 30
0.0
 11
2067.753799270448
 21
1235.430368466988
 31
0.0
  0
LINE
  5
95D
330
8BE
100
AcDbEntity
  8
0
  6
Continuous
 62
     7
370
    15
100
AcDbLine
 10
2068.414477507445
 20
1232.873739155063
 30
0.0
 11
2068.354565041921
 21
1233.982509444854
 31
0.0
  0
LINE
  5
95E
330
8BE
100
AcDbEntity
  8
0
  6
Continuous
 62
     7
370
    15
100
AcDbLine
 10
2069.478863963496
 20
1233.417084743724
 30
0.0
 11
2069.415225213702
 21
1234.594815528721
 31
0.0
  0
LINE
  5
95F
330
8BE
100
AcDbEntity
  8
0
  6
Continuous
 62
     7
370
    15
100
AcDbLine
 10
2070.712574546301
 20
1234.200402336775
 30
0.0
 11
2070.652662080778
 21
1235.309172626565
 31
0.0
  0
LWPOLYLINE
  5
960
330
8BE
100
AcDbEntity
  8
0
  6
Continuous
 62
     7
370
    15
100
AcDbPolyline
 90
       14
 70
   128
 43
0.0
 10
2050.21480799985
 20
1260.824167238569
 10
2049.624858605818
 20
1260.649721375843
 10
2048.98999983427
 20
1260.541663686318
 10
2048.336868124994
 20
1260.504527890358
 10
2047.692866585943
 20
1260.53987207527
 10
2047.085015255255
 20
1260.646213323442
 10
2046.538817435551
 20
1260.819089930347
 10
2046.077189665107
 20
1261.051248601967
 10
2045.719500220561
 20
1261.332948777477
 10
2045.480756492189
 20
1261.652371308903
 10
2045.370975326619
 20
1261.996114350972
 10
2045.394762755206
 20
1262.349755655375
 10
2045.55112074116
 20
1262.698457677553
 10
2045.833489053665
 20
1263.027590107844
  0
LWPOLYLINE
  5
961
330
8BE
100
AcDbEntity
  8
0
  6
Continuous
 62
     7
370
    15
100
AcDbPolyline
 90
        4
 70
   128
 43
0.0
 10
2050.21480799985
 20
1260.824167238569
 10
2050.228041080844
 20
1260.718133245039
 10
2050.377170570186
 20
1259.522445077538
 10
2050.432536529819
 20
1259.078203379788
  0
ARC
  5
962
330
8BE
100
AcDbEntity
  8
0
  6
Continuous
 62
     7
370
    15
100
AcDbCircle
 10
2049.303595047978
 20
1262.258610512003
 30
0.0
 40
3.374833091586149
100
AcDbArc
 50
289.5432136149565
 51
310.4514098523521
  0
LWPOLYLINE
  5
963
330
8BE
100
AcDbEntity
  8
0
  6
Continuous
 62
     7
370
    15
100
AcDbPolyline
 90
        3
 70
   128
 43
0.0
 10
2051.493196701599
 20
1259.690509463655
 10
2051.437830741966
 20
1260.134751161405
 10
2051.275468171629
 20
1261.436473322436
  0
LWPOLYLINE
  5
964
330
8BE
100
AcDbEntity
  8
0
  6
Continuous
 62
     7
370
    15
100
AcDbPolyline
 90
       14
 70
   128
 43
0.0
 10
2046.894149225444
 20
1263.639896191711
 10
2047.484098619476
 20
1263.814342054437
 10
2048.118957391024
 20
1263.922399743963
 10
2048.772089100299
 20
1263.959535539922
 10
2049.416090639351
 20
1263.92419135501
 10
2050.023941970039
 20
1263.817850106838
 10
2050.570139789743
 20
1263.644973499933
 10
2051.031767560187
 20
1263.412814828313
 10
2051.389457004733
 20
1263.131114652803
 10
2051.628200733105
 20
1262.811692121377
 10
2051.737981898675
 20
1262.467949079308
 10
2051.714194470088
 20
1262.114307774905
 10
2051.557836484134
 20
1261.765605752727
 10
2051.275468171629
 20
1261.436473322436
  0
LWPOLYLINE
  5
965
330
8BE
100
AcDbEntity
  8
0
  6
Continuous
 62
     7
370
    15
100
AcDbPolyline
 90
        3
 70
   128
 43
0.0
 10
2046.894149225444
 20
1263.639896191711
 10
2046.891956042363
 20
1263.541620269088
 10
2046.868956787844
 20
1262.506839778112
  0
LINE
  5
966
330
8BE
100
AcDbEntity
  8
0
  6
Continuous
 62
     7
370
    15
100
AcDbLine
 10
2047.494914996919
 20
1262.192037169576
 30
0.0
 11
2046.257478129842
 21
1261.477680071732
 31
0.0
  0
LINE
  5
967
330
8BE
100
AcDbEntity
  8
0
  6
Continuous
 62
     7
370
    15
100
AcDbLine
 10
2046.257478129842
 20
1261.477680071732
 30
0.0
 11
2047.315945189519
 21
1260.945363078992
 31
0.0
  0
LINE
  5
968
330
8BE
100
AcDbEntity
  8
0
  6
Continuous
 62
     7
370
    15
100
AcDbLine
 10
2047.315945189519
 20
1260.945363078992
 30
0.0
 11
2048.553382056596
 21
1261.659720176837
 31
0.0
  0
LINE
  5
969
330
8BE
100
AcDbEntity
  8
0
  6
Continuous
 62
     7
370
    15
100
AcDbLine
 10
2048.553382056596
 20
1261.659720176837
 30
0.0
 11
2050.21480799985
 21
1260.824167238569
 31
0.0
  0
LINE
  5
96A
330
8BE
100
AcDbEntity
  8
0
  6
Continuous
 62
     7
370
    15
100
AcDbLine
 10
2045.833489053665
 20
1263.027590107844
 30
0.0
 11
2047.494914996919
 21
1262.192037169576
 31
0.0
  0
ARC
  5
96B
330
8BE
100
AcDbEntity
  8
0
  6
Continuous
 62
     7
370
    15
100
AcDbCircle
 10
2051.095665414267
 20
1259.195031653287
 30
0.0
 40
1.635493575851985
100
AcDbArc
 50
9.392871389300777
 51
54.41421729180088
  0
ARC
  5
96C
330
8BE
100
AcDbEntity
  8
0
  6
Continuous
 62
     7
370
    15
100
AcDbCircle
 10
2046.262505131771
 20
1258.983602232688
 30
0.0
 40
1.540806312572713
100
AcDbArc
 50
130.304568703936
 51
178.2602363710781
  0
LINE
  5
96D
330
8BE
100
AcDbEntity
  8
0
  6
Continuous
 62
     7
370
    15
100
AcDbLine
 10
2048.099078306002
 20
1261.397456204064
 30
0.0
 11
2047.522172853378
 21
1261.687589536819
 31
0.0
  0
LINE
  5
96E
330
8BE
100
AcDbEntity
  8
0
  6
Continuous
 62
     7
370
    15
100
AcDbLine
 10
2049.645026369107
 20
1261.698618132741
 30
0.0
 11
2049.100775525547
 21
1261.384428808462
 31
0.0
  0
LINE
  5
96F
330
8BE
100
AcDbEntity
  8
0
  6
Continuous
 62
     7
370
    15
100
AcDbLine
 10
2051.493196701599
 20
1259.690509463655
 30
0.0
 11
2050.280119201132
 21
1260.300582078674
 31
0.0
  0
ARC
  5
970
330
8BE
100
AcDbEntity
  8
0
  6
Continuous
 62
     7
370
    15
100
AcDbCircle
 10
2048.534050619467
 20
1262.775564292982
 30
0.0
 40
5.279295348042374
100
AcDbArc
 50
245.8206971783691
 51
298.0737895659202
  0
LINE
  5
971
330
8BE
100
AcDbEntity
  8
0
  6
Continuous
 62
     7
370
    15
100
AcDbLine
 10
2010.366721427201
 20
1306.373040046039
 30
0.0
 11
2024.508857050932
 21
1314.537121164266
 31
0.0
  0
LINE
  5
972
330
8BE
100
AcDbEntity
  8
0
  6
Continuous
 62
     7
370
    15
100
AcDbLine
 10
2024.508857050932
 20
1296.818185546345
 30
0.0
 11
2024.508857050932
 21
1314.537121164266
 31
0.0
  0
LINE
  5
973
330
8BE
100
AcDbEntity
  8
0
  6
Continuous
 62
     7
370
    15
100
AcDbLine
 10
1989.507071382198
 20
1316.781978071652
 30
0.0
 11
2003.649207005929
 21
1324.946059189879
 31
0.0
  0
LWPOLYLINE
  5
974
330
8BE
100
AcDbEntity
  8
0
  6
Continuous
 62
     7
370
    15
100
AcDbPolyline
 90
       26
 70
   128
 43
0.0
 10
2003.550490373569
 20
1316.614126743305
 10
2003.360731945221
 20
1316.409859325831
 10
2003.123380156759
 20
1316.036585195742
 10
2003.010516110006
 20
1315.651375458601
 10
2003.025767348288
 20
1315.266611072312
 10
2003.16864368426
 20
1314.894658680835
 10
2003.434552954923
 20
1314.547473140075
 10
2003.814948617529
 20
1314.236213278977
 10
2004.29760444249
 20
1313.970883245584
 10
2004.867007474461
 20
1313.760010965482
 10
2005.504856631488
 20
1313.61037404726
 10
2006.190650916841
 20
1313.526781944592
 10
2006.902348337915
 20
1313.511921376437
 10
2007.617074354009
 20
1313.566269973682
 10
2008.311857082889
 20
1313.688080927695
 10
2008.964365635979
 20
1313.873439134186
 10
2009.553627851497
 20
1314.116387027887
 10
2010.060704356988
 20
1314.409116063594
 10
2010.469297296344
 20
1314.742217689244
 10
2010.766274156302
 20
1315.104985744509
 10
2010.942089856229
 20
1315.485760565607
 10
2010.991093534868
 20
1315.872303736487
 10
2010.911710173667
 20
1316.252191441585
 10
2010.706491219172
 20
1316.613213777489
 10
2010.382032577435
 20
1316.943767189273
 10
2010.3130898122
 20
1316.998146210217
  0
LINE
  5
975
330
8BE
100
AcDbEntity
  8
0
  6
Continuous
 62
     7
370
    15
100
AcDbLine
 10
2024.508857050932
 20
1314.537121164266
 30
0.0
 11
2003.649207005929
 21
1324.946059189879
 31
0.0
  0
LINE
  5
976
330
8BE
100
AcDbEntity
  8
0
  6
Continuous
 62
     7
370
    15
100
AcDbLine
 10
2049.67768097817
 20
1261.094295475708
 30
0.0
 11
2049.614042228375
 21
1262.272026260704
 31
0.0
  0
LINE
  5
977
330
8BE
100
AcDbEntity
  8
0
  6
Continuous
 62
     7
370
    15
100
AcDbLine
 10
2051.275468171629
 20
1261.436473322436
 30
0.0
 11
2049.614042228375
 21
1262.272026260704
 31
0.0
  0
LINE
  5
978
330
8BE
100
AcDbEntity
  8
0
  6
Continuous
 62
     7
370
    15
100
AcDbLine
 10
2049.614042228375
 20
1262.272026260704
 30
0.0
 11
2050.851479095452
 21
1262.986383358549
 31
0.0
  0
LINE
  5
979
330
8BE
100
AcDbEntity
  8
0
  6
Continuous
 62
     7
370
    15
100
AcDbLine
 10
2050.851479095452
 20
1262.986383358549
 30
0.0
 11
2049.793012035775
 21
1263.518700351288
 31
0.0
  0
LINE
  5
97A
330
8BE
100
AcDbEntity
  8
0
  6
Continuous
 62
     7
370
    15
100
AcDbLine
 10
2049.793012035775
 20
1263.518700351288
 30
0.0
 11
2048.555575168698
 21
1262.804343253443
 31
0.0
  0
LINE
  5
97B
330
8BE
100
AcDbEntity
  8
0
  6
Continuous
 62
     7
370
    15
100
AcDbLine
 10
2048.555575168698
 20
1262.804343253443
 30
0.0
 11
2046.894149225444
 21
1263.639896191711
 31
0.0
  0
LINE
  5
97C
330
8BE
100
AcDbEntity
  8
0
  6
Continuous
 62
     7
370
    15
100
AcDbLine
 10
2047.554827462442
 20
1261.083266879785
 30
0.0
 11
2047.494914996919
 21
1262.192037169576
 31
0.0
  0
LINE
  5
97D
330
8BE
100
AcDbEntity
  8
0
  6
Continuous
 62
     7
370
    15
100
AcDbLine
 10
2049.852924501298
 20
1262.409930061497
 30
0.0
 11
2049.793012035775
 21
1263.518700351288
 31
0.0
  0
LINE
  5
97E
330
8BE
100
AcDbEntity
  8
0
  6
Continuous
 62
     7
370
    15
100
AcDbLine
 10
2048.619213918493
 20
1261.626612468447
 30
0.0
 11
2048.555575168698
 21
1262.804343253443
 31
0.0
  0
LWPOLYLINE
  5
97F
330
8BE
100
AcDbEntity
  8
0
  6
Continuous
 62
     7
370
    15
100
AcDbPolyline
 90
       14
 70
   128
 43
0.0
 10
2029.355157954846
 20
1289.033694963292
 10
2028.765208560816
 20
1288.859249100566
 10
2028.130349789266
 20
1288.751191411041
 10
2027.477218079992
 20
1288.714055615081
 10
2026.83321654094
 20
1288.749399799993
 10
2026.225365210252
 20
1288.855741048165
 10
2025.679167390548
 20
1289.02861765507
 10
2025.217539620104
 20
1289.26077632669
 10
2024.859850175559
 20
1289.5424765022
 10
2024.621106447186
 20
1289.861899033626
 10
2024.511325281616
 20
1290.205642075695
 10
2024.535112710202
 20
1290.559283380098
 10
2024.691470696157
 20
1290.907985402276
 10
2024.973839008661
 20
1291.237117832567
  0
LWPOLYLINE
  5
980
330
8BE
100
AcDbEntity
  8
0
  6
Continuous
 62
     7
370
    15
100
AcDbPolyline
 90
        4
 70
   128
 43
0.0
 10
2029.355157954846
 20
1289.033694963292
 10
2029.368391035841
 20
1288.927660969761
 10
2029.517520525183
 20
1287.73197280226
 10
2029.572886484816
 20
1287.287731104511
  0
ARC
  5
981
330
8BE
100
AcDbEntity
  8
0
  6
Continuous
 62
     7
370
    15
100
AcDbCircle
 10
2028.443945002976
 20
1290.468138236724
 30
0.0
 40
3.374833091584541
100
AcDbArc
 50
289.5432136149442
 51
310.451409852362
  0
LWPOLYLINE
  5
982
330
8BE
100
AcDbEntity
  8
0
  6
Continuous
 62
     7
370
    15
100
AcDbPolyline
 90
        3
 70
   128
 43
0.0
 10
2030.633546656596
 20
1287.900037188377
 10
2030.578180696963
 20
1288.344278886127
 10
2030.415818126626
 20
1289.646001047159
  0
LWPOLYLINE
  5
983
330
8BE
100
AcDbEntity
  8
0
  6
Continuous
 62
     7
370
    15
100
AcDbPolyline
 90
       14
 70
   128
 43
0.0
 10
2026.034499180441
 20
1291.849423916434
 10
2026.624448574472
 20
1292.02386977916
 10
2027.259307346021
 20
1292.131927468685
 10
2027.912439055296
 20
1292.169063264645
 10
2028.556440594348
 20
1292.133719079733
 10
2029.164291925035
 20
1292.027377831561
 10
2029.71048974474
 20
1291.854501224656
 10
2030.172117515184
 20
1291.622342553036
 10
2030.529806959729
 20
1291.340642377526
 10
2030.768550688102
 20
1291.0212198461
 10
2030.878331853672
 20
1290.677476804031
 10
2030.854544425085
 20
1290.323835499628
 10
2030.69818643913
 20
1289.97513347745
 10
2030.415818126626
 20
1289.646001047159
  0
LWPOLYLINE
  5
984
330
8BE
100
AcDbEntity
  8
0
  6
Continuous
 62
     7
370
    15
100
AcDbPolyline
 90
        3
 70
   128
 43
0.0
 10
2026.034499180441
 20
1291.849423916434
 10
2026.032305997359
 20
1291.751147993811
 10
2026.009306742841
 20
1290.716367502835
  0
LINE
  5
985
330
8BE
100
AcDbEntity
  8
0
  6
Continuous
 62
     7
370
    15
100
AcDbLine
 10
2026.635264951915
 20
1290.401564894299
 30
0.0
 11
2025.397828084839
 21
1289.687207796454
 31
0.0
  0
LINE
  5
986
330
8BE
100
AcDbEntity
  8
0
  6
Continuous
 62
     7
370
    15
100
AcDbLine
 10
2025.397828084839
 20
1289.687207796454
 30
0.0
 11
2026.456295144516
 21
1289.154890803715
 31
0.0
  0
LINE
  5
987
330
8BE
100
AcDbEntity
  8
0
  6
Continuous
 62
     7
370
    15
100
AcDbLine
 10
2026.456295144516
 20
1289.154890803715
 30
0.0
 11
2027.693732011592
 21
1289.86924790156
 31
0.0
  0
LINE
  5
988
330
8BE
100
AcDbEntity
  8
0
  6
Continuous
 62
     7
370
    15
100
AcDbLine
 10
2027.693732011592
 20
1289.86924790156
 30
0.0
 11
2029.355157954846
 21
1289.033694963292
 31
0.0
  0
LINE
  5
989
330
8BE
100
AcDbEntity
  8
0
  6
Continuous
 62
     7
370
    15
100
AcDbLine
 10
2024.973839008661
 20
1291.237117832567
 30
0.0
 11
2026.635264951915
 21
1290.401564894299
 31
0.0
  0
ARC
  5
98A
330
8BE
100
AcDbEntity
  8
0
  6
Continuous
 62
     7
370
    15
100
AcDbCircle
 10
2030.236015442512
 20
1287.404559455937
 30
0.0
 40
1.635493469853653
100
AcDbArc
 50
9.392859146240926
 51
54.4142177900081
  0
ARC
  5
98B
330
8BE
100
AcDbEntity
  8
0
  6
Continuous
 62
     7
370
    15
100
AcDbCircle
 10
2025.40285503403
 20
1287.193129996266
 30
0.0
 40
1.540806248827719
100
AcDbArc
 50
130.3045681429756
 51
178.2602453642345
  0
LINE
  5
98C
330
8BE
100
AcDbEntity
  8
0
  6
Continuous
 62
     7
370
    15
100
AcDbLine
 10
2027.239428260998
 20
1289.606983928787
 30
0.0
 11
2026.662522808375
 21
1289.897117261542
 31
0.0
  0
LINE
  5
98D
330
8BE
100
AcDbEntity
  8
0
  6
Continuous
 62
     7
370
    15
100
AcDbLine
 10
2028.785376324103
 20
1289.908145857464
 30
0.0
 11
2028.241125480544
 21
1289.593956533185
 31
0.0
  0
LINE
  5
98E
330
8BE
100
AcDbEntity
  8
0
  6
Continuous
 62
     7
370
    15
100
AcDbLine
 10
2030.633546656596
 20
1287.900037188377
 30
0.0
 11
2029.420469156129
 21
1288.510109803396
 31
0.0
  0
ARC
  5
98F
330
8BE
100
AcDbEntity
  8
0
  6
Continuous
 62
     7
370
    15
100
AcDbCircle
 10
2027.674400574465
 20
1290.985092017705
 30
0.0
 40
5.279295348042611
100
AcDbArc
 50
245.8206971783691
 51
298.0737895659202
  0
LINE
  5
990
330
8BE
100
AcDbEntity
  8
0
  6
Continuous
 62
     7
370
    15
100
AcDbLine
 10
2028.818030933167
 20
1289.30382320043
 30
0.0
 11
2028.754392183373
 21
1290.481553985427
 31
0.0
  0
LINE
  5
991
330
8BE
100
AcDbEntity
  8
0
  6
Continuous
 62
     7
370
    15
100
AcDbLine
 10
2030.415818126626
 20
1289.646001047159
 30
0.0
 11
2028.754392183373
 21
1290.481553985427
 31
0.0
  0
LINE
  5
992
330
8BE
100
AcDbEntity
  8
0
  6
Continuous
 62
     7
370
    15
100
AcDbLine
 10
2028.754392183373
 20
1290.481553985427
 30
0.0
 11
2029.991829050449
 21
1291.195911083271
 31
0.0
  0
LINE
  5
993
330
8BE
100
AcDbEntity
  8
0
  6
Continuous
 62
     7
370
    15
100
AcDbLine
 10
2029.991829050449
 20
1291.195911083271
 30
0.0
 11
2028.933361990771
 21
1291.728228076011
 31
0.0
  0
LINE
  5
994
330
8BE
100
AcDbEntity
  8
0
  6
Continuous
 62
     7
370
    15
100
AcDbLine
 10
2028.933361990771
 20
1291.728228076011
 30
0.0
 11
2027.695925123695
 21
1291.013870978166
 31
0.0
  0
LINE
  5
995
330
8BE
100
AcDbEntity
  8
0
  6
Continuous
 62
     7
370
    15
100
AcDbLine
 10
2027.695925123695
 20
1291.013870978166
 30
0.0
 11
2026.034499180441
 21
1291.849423916434
 31
0.0
  0
LINE
  5
996
330
8BE
100
AcDbEntity
  8
0
  6
Continuous
 62
     7
370
    15
100
AcDbLine
 10
2026.695177417439
 20
1289.292794604508
 30
0.0
 11
2026.635264951915
 21
1290.401564894299
 31
0.0
  0
LINE
  5
997
330
8BE
100
AcDbEntity
  8
0
  6
Continuous
 62
     7
370
    15
100
AcDbLine
 10
2027.75956387349
 20
1289.83614019317
 30
0.0
 11
2027.695925123695
 21
1291.013870978166
 31
0.0
  0
LINE
  5
998
330
8BE
100
AcDbEntity
  8
0
  6
Continuous
 62
     7
370
    15
100
AcDbLine
 10
2028.993274456295
 20
1290.61945778622
 30
0.0
 11
2028.933361990771
 21
1291.728228076011
 31
0.0
  0
LWPOLYLINE
  5
999
330
8BE
100
AcDbEntity
  8
0
  6
Continuous
 62
     7
370
    15
100
AcDbPolyline
 90
       14
 70
   128
 43
0.0
 10
2008.489014202535
 20
1317.214173849983
 10
2007.899099115053
 20
1317.039108862774
 10
2007.264293713857
 20
1316.930088007536
 10
2006.611232199505
 20
1316.891685415679
 10
2005.967314734817
 20
1316.925512324805
 10
2005.359557830467
 20
1317.030149476855
 10
2004.813460827278
 20
1317.201206665179
 10
2004.351936033622
 20
1317.431506932158
 10
2003.994347405592
 20
1317.711387689087
 10
2003.755698103558
 20
1318.029106124391
 10
2003.64600101235
 20
1318.371331890674
 10
2003.669858635861
 20
1318.723706399179
 10
2003.826269992169
 20
1319.071445255645
 10
2004.108672611222
 20
1319.399958561453
  0
LWPOLYLINE
  5
99A
330
8BE
100
AcDbEntity
  8
0
  6
Continuous
 62
     7
370
    15
100
AcDbPolyline
 90
        4
 70
   128
 43
0.0
 10
2008.489014202535
 20
1317.214173849983
 10
2008.502534790404
 20
1317.108026017431
 10
2008.654906496902
 20
1315.911053696454
 10
2008.711477127821
 20
1315.46633468882
  0
ARC
  5
99B
330
8BE
100
AcDbEntity
  8
0
  6
Continuous
 62
     7
370
    15
100
AcDbCircle
 10
2007.576069613045
 20
1318.657942532223
 30
0.0
 40
3.387552339179277
100
AcDbArc
 50
289.5829045589063
 51
310.4117189083988
  0
LWPOLYLINE
  5
99C
330
8BE
100
AcDbEntity
  8
0
  6
Continuous
 62
     7
370
    15
100
AcDbPolyline
 90
        3
 70
   128
 43
0.0
 10
2009.772137299601
 20
1316.078640772687
 10
2009.715566668681
 20
1316.523359780321
 10
2009.549674374314
 20
1317.82647993385
  0
LWPOLYLINE
  5
99D
330
8BE
100
AcDbEntity
  8
0
  6
Continuous
 62
     7
370
    15
100
AcDbPolyline
 90
       14
 70
   128
 43
0.0
 10
2005.169332783002
 20
1320.01226464532
 10
2005.759247870483
 20
1320.187329632529
 10
2006.39405327168
 20
1320.296350487766
 10
2007.047114786031
 20
1320.334753079624
 10
2007.691032250719
 20
1320.300926170498
 10
2008.29878915507
 20
1320.196289018448
 10
2008.844886158258
 20
1320.025231830124
 10
2009.306410951914
 20
1319.794931563145
 10
2009.663999579944
 20
1319.515050806216
 10
2009.902648881979
 20
1319.197332370912
 10
2010.012345973186
 20
1318.855106604629
 10
2009.988488349675
 20
1318.502732096124
 10
2009.832076993367
 20
1318.154993239658
 10
2009.549674374314
 20
1317.82647993385
  0
LWPOLYLINE
  5
99E
330
8BE
100
AcDbEntity
  8
0
  6
Continuous
 62
     7
370
    15
100
AcDbPolyline
 90
        3
 70
   128
 43
0.0
 10
2005.169332783002
 20
1320.01226464532
 10
2005.167430547981
 20
1319.913812781171
 10
2005.147578583466
 20
1318.881545843301
  0
LINE
  5
99F
330
8BE
100
AcDbEntity
  8
0
  6
Continuous
 62
     7
370
    15
100
AcDbLine
 10
2005.769727934861
 20
1318.571094132588
 30
0.0
 11
2004.532291067784
 21
1317.856737034743
 31
0.0
  0
LINE
  5
9A0
330
8BE
100
AcDbEntity
  8
0
  6
Continuous
 62
     7
370
    15
100
AcDbLine
 10
2004.532291067784
 20
1317.856737034743
 30
0.0
 11
2005.590522011819
 21
1317.328681181003
 31
0.0
  0
LINE
  5
9A1
330
8BE
100
AcDbEntity
  8
0
  6
Continuous
 62
     7
370
    15
100
AcDbLine
 10
2005.590522011819
 20
1317.328681181003
 30
0.0
 11
2006.827958878895
 21
1318.043038278848
 31
0.0
  0
LINE
  5
9A2
330
8BE
100
AcDbEntity
  8
0
  6
Continuous
 62
     7
370
    15
100
AcDbLine
 10
2006.827958878895
 20
1318.043038278848
 30
0.0
 11
2008.489014202535
 21
1317.214173849983
 31
0.0
  0
LINE
  5
9A3
330
8BE
100
AcDbEntity
  8
0
  6
Continuous
 62
     7
370
    15
100
AcDbLine
 10
2004.108672611222
 20
1319.399958561453
 30
0.0
 11
2005.769727934861
 21
1318.571094132588
 31
0.0
  0
ARC
  5
9A4
330
8BE
100
AcDbEntity
  8
0
  6
Continuous
 62
     7
370
    15
100
AcDbCircle
 10
2009.38785756568
 20
1315.578711213925
 30
0.0
 40
1.626663800249393
100
AcDbArc
 50
9.595131378494007
 51
54.69531841030384
  0
ARC
  5
9A5
330
8BE
100
AcDbEntity
  8
0
  6
Continuous
 62
     7
370
    15
100
AcDbCircle
 10
2004.539533650767
 20
1315.352213369862
 30
0.0
 40
1.533996896438453
100
AcDbArc
 50
130.3599435187905
 51
178.3499864456495
  0
LINE
  5
9A6
330
8BE
100
AcDbEntity
  8
0
  6
Continuous
 62
     7
370
    15
100
AcDbLine
 10
2006.36780595536
 20
1317.777397650411
 30
0.0
 11
2005.798671599343
 21
1318.061394947933
 31
0.0
  0
LINE
  5
9A7
330
8BE
100
AcDbEntity
  8
0
  6
Continuous
 62
     7
370
    15
100
AcDbLine
 10
2007.921654556338
 20
1318.07358767771
 30
0.0
 11
2007.386200324552
 21
1317.764476529316
 31
0.0
  0
LINE
  5
9A8
330
8BE
100
AcDbEntity
  8
0
  6
Continuous
 62
     7
370
    15
100
AcDbLine
 10
2009.772137299601
 20
1316.078640772687
 30
0.0
 11
2008.556344265265
 21
1316.685319902926
 31
0.0
  0
ARC
  5
9A9
330
8BE
100
AcDbEntity
  8
0
  6
Continuous
 62
     7
370
    15
100
AcDbCircle
 10
2006.806540055181
 20
1319.175888865419
 30
0.0
 40
5.296356827512361
100
AcDbArc
 50
246.0284426838554
 51
298.0982434797945
  0
LINE
  5
9AA
330
8BE
100
AcDbEntity
  8
0
  6
Continuous
 62
     7
370
    15
100
AcDbLine
 10
2007.95533468057
 20
1317.480479231794
 30
0.0
 11
2007.888619050675
 21
1318.655344362715
 31
0.0
  0
LINE
  5
9AB
330
8BE
100
AcDbEntity
  8
0
  6
Continuous
 62
     7
370
    15
100
AcDbLine
 10
2009.549674374314
 20
1317.82647993385
 30
0.0
 11
2007.888619050675
 21
1318.655344362715
 31
0.0
  0
LINE
  5
9AC
330
8BE
100
AcDbEntity
  8
0
  6
Continuous
 62
     7
370
    15
100
AcDbLine
 10
2007.888619050675
 20
1318.655344362715
 30
0.0
 11
2009.126055917752
 21
1319.36970146056
 31
0.0
  0
LINE
  5
9AD
330
8BE
100
AcDbEntity
  8
0
  6
Continuous
 62
     7
370
    15
100
AcDbLine
 10
2009.126055917752
 20
1319.36970146056
 30
0.0
 11
2008.067824973717
 21
1319.8977573143
 31
0.0
  0
LINE
  5
9AE
330
8BE
100
AcDbEntity
  8
0
  6
Continuous
 62
     7
370
    15
100
AcDbLine
 10
2008.067824973717
 20
1319.8977573143
 30
0.0
 11
2006.830388106641
 21
1319.183400216455
 31
0.0
  0
LINE
  5
9AF
330
8BE
100
AcDbEntity
  8
0
  6
Continuous
 62
     7
370
    15
100
AcDbLine
 10
2006.830388106641
 20
1319.183400216455
 30
0.0
 11
2005.169332783002
 21
1320.01226464532
 31
0.0
  0
LINE
  5
9B0
330
8BE
100
AcDbEntity
  8
0
  6
Continuous
 62
     7
370
    15
100
AcDbLine
 10
1987.951436463587
 20
1326.988592250155
 30
0.0
 11
2002.093572087319
 21
1335.152673368382
 31
0.0
  0
LINE
  5
9B1
330
8BE
100
AcDbEntity
  8
0
  6
Continuous
 62
     7
370
    15
100
AcDbLine
 10
1987.951436463587
 20
1328.621673873926
 30
0.0
 11
2002.093572087319
 21
1336.785754992154
 31
0.0
  0
LINE
  5
9B2
330
8BE
100
AcDbEntity
  8
0
  6
Continuous
 62
     7
370
    15
100
AcDbLine
 10
2005.832351723574
 20
1317.468286502016
 30
0.0
 11
2005.769727934861
 21
1318.571094132588
 31
0.0
  0
LINE
  5
9B3
330
8BE
100
AcDbEntity
  8
0
  6
Continuous
 62
     7
370
    15
100
AcDbLine
 10
1989.507071382198
 20
1324.130845378624
 30
0.0
 11
2003.649207005929
 21
1332.294926496851
 31
0.0
  0
LINE
  5
9B4
330
8BE
100
AcDbEntity
  8
0
  6
Continuous
 62
     7
370
    15
100
AcDbLine
 10
2003.649207005929
 20
1324.946059189879
 30
0.0
 11
2003.649207005929
 21
1332.294926496851
 31
0.0
  0
LINE
  5
9B5
330
8BE
100
AcDbEntity
  8
0
  6
Continuous
 62
     7
370
    15
100
AcDbLine
 10
1983.850217132706
 20
1327.396477825915
 30
0.0
 11
1985.547549249343
 21
1328.376326800178
 31
0.0
  0
LINE
  5
9B6
330
8BE
100
AcDbEntity
  8
0
  6
Continuous
 62
     7
370
    15
100
AcDbLine
 10
2039.295194931433
 20
1215.287314100429
 30
0.0
 11
2036.537478484806
 21
1216.879309918484
 31
0.0
  0
LINE
  5
9B7
330
8BE
100
AcDbEntity
  8
0
  6
Continuous
 62
     7
370
    15
100
AcDbLine
 10
2036.537478484806
 20
1216.879309918484
 30
0.0
 11
2042.901439515484
 21
1220.553146421686
 31
0.0
  0
LINE
  5
9B8
330
8BE
100
AcDbEntity
  8
0
  6
Continuous
 62
     7
370
    15
100
AcDbLine
 10
2045.659155962112
 20
1218.961150603632
 30
0.0
 11
2039.295194931433
 21
1215.287314100429
 31
0.0
  0
LINE
  5
9B9
330
8BE
100
AcDbEntity
  8
0
  6
Continuous
 62
     7
370
    15
100
AcDbLine
 10
2039.295194931433
 20
1215.287314100429
 30
0.0
 11
2039.295194931433
 21
1212.021150852886
 31
0.0
  0
LINE
  5
9BA
330
8BE
100
AcDbEntity
  8
0
  6
Continuous
 62
     7
370
    15
100
AcDbLine
 10
2045.659155962112
 20
1215.694987356088
 30
0.0
 11
2039.295194931433
 21
1212.021150852886
 31
0.0
  0
LINE
  5
9BB
330
8BE
100
AcDbEntity
  8
0
  6
Continuous
 62
     7
370
    15
100
AcDbLine
 10
2036.537478484806
 20
1216.879309918484
 30
0.0
 11
2036.537478484806
 21
1213.613146670941
 31
0.0
  0
LINE
  5
9BC
330
8BE
100
AcDbEntity
  8
0
  6
Continuous
 62
     7
370
    15
100
AcDbLine
 10
2039.295194931433
 20
1212.021150852886
 30
0.0
 11
2036.537478484806
 21
1213.613146670941
 31
0.0
  0
LINE
  5
9BD
330
8BE
100
AcDbEntity
  8
0
  6
Continuous
 62
     7
370
    15
100
AcDbLine
 10
2006.897103736535
 20
1318.008535085534
 30
0.0
 11
2006.830388106641
 21
1319.183400216455
 31
0.0
  0
LINE
  5
9BE
330
8BE
100
AcDbEntity
  8
0
  6
Continuous
 62
     7
370
    15
100
AcDbLine
 10
2008.130448762431
 20
1318.794949683729
 30
0.0
 11
2008.067824973717
 21
1319.8977573143
 31
0.0
  0
LINE
  5
9BF
330
8BE
100
AcDbEntity
  8
0
  6
Continuous
 62
     7
370
    15
100
AcDbLine
 10
2031.941284407093
 20
1219.124432225996
 30
0.0
 11
2031.941284407093
 21
1215.858268978453
 31
0.0
  0
LINE
  5
9C0
330
8BE
100
AcDbEntity
  8
0
  6
Continuous
 62
     7
370
    15
100
AcDbLine
 10
2038.658798828365
 20
1223.002370757154
 30
0.0
 11
2031.941284407093
 21
1219.124432225996
 31
0.0
  0
LINE
  5
9C1
330
8BE
100
AcDbEntity
  8
0
  6
Continuous
 62
     7
370
    15
100
AcDbLine
 10
2038.658798828365
 20
1219.736207509611
 30
0.0
 11
2031.941284407093
 21
1215.858268978453
 31
0.0
  0
LINE
  5
9C2
330
8BE
100
AcDbEntity
  8
0
  6
Continuous
 62
     7
370
    15
100
AcDbLine
 10
2031.941284407093
 20
1219.124432225996
 30
0.0
 11
2029.183567960465
 21
1220.71642804405
 31
0.0
  0
LINE
  5
9C3
330
8BE
100
AcDbEntity
  8
0
  6
Continuous
 62
     7
370
    15
100
AcDbLine
 10
2029.183567960465
 20
1220.71642804405
 30
0.0
 11
2035.901082381737
 21
1224.594366575208
 31
0.0
  0
LINE
  5
9C4
330
8BE
100
AcDbEntity
  8
0
  6
Continuous
 62
     7
370
    15
100
AcDbLine
 10
2029.183567960465
 20
1220.71642804405
 30
0.0
 11
2029.183567960465
 21
1217.450264796507
 31
0.0
  0
LINE
  5
9C5
330
8BE
100
AcDbEntity
  8
0
  6
Continuous
 62
     7
370
    15
100
AcDbLine
 10
2031.941284407093
 20
1215.858268978453
 30
0.0
 11
2029.183567960465
 21
1217.450264796507
 31
0.0
  0
LINE
  5
9C6
330
8BE
100
AcDbEntity
  8
0
  6
Continuous
 62
     7
370
    15
100
AcDbLine
 10
2027.195862819441
 20
1239.010002196215
 30
0.0
 11
2027.777326993186
 21
1239.345674318736
 31
0.0
  0
ARC
  5
9C7
330
8BE
100
AcDbEntity
  8
0
  6
Continuous
 62
     7
370
    15
100
AcDbCircle
 10
2027.609917479531
 20
1237.696244621166
 30
0.0
 40
0.768402403785824
100
AcDbArc
 50
182.6054784856498
 51
237.3945216599809
  0
LINE
  5
9C8
330
8BE
100
AcDbEntity
  8
0
  6
Continuous
 62
     7
370
    15
100
AcDbLine
 10
2027.195862819441
 20
1237.048941761138
 30
0.0
 11
2032.49916367834
 21
1233.987411341802
 31
0.0
  0
LINE
  5
9C9
330
8BE
100
AcDbEntity
  8
0
  6
Continuous
 62
     7
370
    15
100
AcDbLine
 10
2032.49916367834
 20
1232.354329718031
 30
0.0
 11
2025.428095866475
 21
1236.436370277144
 31
0.0
  0
LINE
  5
9CA
330
8BE
100
AcDbEntity
  8
0
  6
Continuous
 62
     7
370
    15
100
AcDbLine
 10
2025.428095866475
 20
1236.436370277144
 30
0.0
 11
2025.428095866475
 21
1239.375917199933
 31
0.0
  0
ARC
  5
9CB
330
8BE
100
AcDbEntity
  8
0
  6
Continuous
 62
     7
370
    15
100
AcDbCircle
 10
2025.600525613445
 20
1239.403888078693
 30
0.0
 40
0.1746836789713889
100
AcDbArc
 50
50.79671476429261
 51
189.2140369904692
  0
LINE
  5
9CC
330
8BE
100
AcDbEntity
  8
0
  6
Continuous
 62
     7
370
    15
100
AcDbLine
 10
2025.710938578949
 20
1239.539251902323
 30
0.0
 11
2025.852359935186
 21
1239.457611091141
 31
0.0
  0
ARC
  5
9CD
330
8BE
100
AcDbEntity
  8
0
  6
Continuous
 62
     7
370
    15
100
AcDbCircle
 10
2025.962759670499
 20
1239.59068376747
 30
0.0
 40
0.172905866709276
100
AcDbArc
 50
230.3202254214376
 51
5.301575763888362
  0
LINE
  5
9CE
330
8BE
100
AcDbEntity
  8
0
  6
Continuous
 62
     7
370
    15
100
AcDbLine
 10
2026.842309428848
 20
1239.208836218932
 30
0.0
 11
2026.842309428848
 21
1237.661314195036
 31
0.0
  0
LINE
  5
9CF
330
8BE
100
AcDbEntity
  8
0
  6
Continuous
 62
     7
370
    15
100
AcDbLine
 10
2016.23570771105
 20
1242.887542627183
 30
0.0
 11
2018.241818015474
 21
1244.045645455016
 31
0.0
  0
LINE
  5
9D0
330
8BE
100
AcDbEntity
  8
0
  6
Continuous
 62
     7
370
    15
100
AcDbLine
 10
1994.810372241097
 20
1250.683496974737
 30
0.0
 11
1995.936809377624
 21
1251.333775292091
 31
0.0
  0
LWPOLYLINE
  5
9D1
330
8BE
100
AcDbEntity
  8
0
  6
Continuous
 62
     8
370
    15
100
AcDbPolyline
 90
       14
 70
   128
 43
0.0
 10
2083.573139084699
 20
1206.066336490953
 10
2084.099534559381
 20
1205.854569391407
 10
2084.700292041743
 20
1205.705546656991
 10
2085.352324758644
 20
1205.624995147816
 10
2086.030575458438
 20
1205.616010413207
 10
2086.7089793471
 20
1205.678937731476
 10
2087.361465743642
 20
1205.811358841071
 10
2087.962959961763
 20
1206.008184873013
 10
2088.490346915983
 20
1206.261851913277
 10
2088.923359421413
 20
1206.562611679762
 10
2089.245357050305
 20
1206.898906143312
 10
2089.443965614361
 20
1207.257811696288
 10
2089.511552697842
 20
1207.625535799565
 10
2089.498648778882
 20
1207.788228012746
  0
ARC
  5
9D2
330
8BE
100
AcDbEntity
  8
0
  6
Continuous
 62
     8
370
    15
100
AcDbCircle
 10
2084.059168996903
 20
1207.489107355244
 30
0.0
 40
1.503496593887601
100
AcDbArc
 50
183.6216054257402
 51
251.1394223767163
  0
LWPOLYLINE
  5
9D3
330
8BE
100
AcDbEntity
  8
0
  6
Continuous
 62
     8
370
    15
100
AcDbPolyline
 90
       14
 70
   128
 43
0.0
 10
2067.101893230709
 20
1229.840621724408
 10
2067.628395603596
 20
1229.626925451078
 10
2068.229255876123
 20
1229.476047679945
 10
2068.881383324983
 20
1229.393786559141
 10
2069.559717058035
 20
1229.383303337407
 10
2070.23818909033
 20
1229.445000879073
 10
2070.89072612216
 20
1229.576508182214
 10
2071.492251521337
 20
1229.77277149492
 10
2072.019649004111
 20
1230.026248528151
 10
2072.452650980987
 20
1230.32719830167
 10
2072.774617428823
 20
1230.664055484455
 10
2072.973175357591
 20
1231.023874843885
 10
2073.04069429744
 20
1231.392828723764
 10
2073.028103998737
 20
1231.553977788193
  0
ARC
  5
9D4
330
8BE
100
AcDbEntity
  8
0
  6
Continuous
 62
     8
370
    15
100
AcDbCircle
 10
2067.596324206331
 20
1231.26932255039
 30
0.0
 40
1.511835983107247
100
AcDbArc
 50
183.4279335529018
 51
250.9107808852625
  0
LWPOLYLINE
  5
9D5
330
8BE
100
AcDbEntity
  8
0
  6
Continuous
 62
     8
370
    15
100
AcDbPolyline
 90
       14
 70
   128
 43
0.0
 10
2046.242243185705
 20
1258.05014944913
 10
2046.768745558592
 20
1257.836453175801
 10
2047.36960583112
 20
1257.685575404668
 10
2048.021733279981
 20
1257.603314283864
 10
2048.700067013032
 20
1257.592831062129
 10
2049.378539045327
 20
1257.654528603795
 10
2050.031076077156
 20
1257.786035906936
 10
2050.632601476333
 20
1257.982299219643
 10
2051.159998959108
 20
1258.235776252873
 10
2051.593000935983
 20
1258.536726026393
 10
2051.91496738382
 20
1258.873583209178
 10
2052.113525312587
 20
1259.233402568608
 10
2052.181044252436
 20
1259.602356448487
 10
2052.168453953734
 20
1259.763505512916
  0
ARC
  5
9D6
330
8BE
100
AcDbEntity
  8
0
  6
Continuous
 62
     8
370
    15
100
AcDbCircle
 10
2046.736674161327
 20
1259.478850275112
 30
0.0
 40
1.511835983106493
100
AcDbArc
 50
183.427933552875
 51
250.9107808852792
  0
LWPOLYLINE
  5
9D7
330
8BE
100
AcDbEntity
  8
0
  6
Continuous
 62
     8
370
    15
100
AcDbPolyline
 90
       14
 70
   128
 43
0.0
 10
2025.382593140702
 20
1286.259677173853
 10
2025.909095513589
 20
1286.045980900523
 10
2026.509955786116
 20
1285.895103129391
 10
2027.162083234977
 20
1285.812842008587
 10
2027.840416968029
 20
1285.802358786852
 10
2028.518889000324
 20
1285.864056328518
 10
2029.171426032153
 20
1285.995563631659
 10
2029.772951431331
 20
1286.191826944366
 10
2030.300348914105
 20
1286.445303977596
 10
2030.73335089098
 20
1286.746253751115
 10
2031.055317338817
 20
1287.083110933901
 10
2031.253875267584
 20
1287.442930293331
 10
2031.321394207433
 20
1287.81188417321
 10
2031.308803908731
 20
1287.973033237638
  0
ARC
  5
9D8
330
8BE
100
AcDbEntity
  8
0
  6
Continuous
 62
     8
370
    15
100
AcDbCircle
 10
2025.877024116324
 20
1287.688377999835
 30
0.0
 40
1.511835983106907
100
AcDbArc
 50
183.427933552888
 51
250.9107808852668
  0
LWPOLYLINE
  5
9D9
330
8BE
100
AcDbEntity
  8
0
  6
Continuous
 62
     8
370
    15
100
AcDbPolyline
 90
       14
 70
   128
 43
0.0
 10
2004.524754991665
 20
1314.427421044702
 10
2005.051150466347
 20
1314.215653945156
 10
2005.651907948708
 20
1314.06663121074
 10
2006.303940665609
 20
1313.986079701565
 10
2006.982191365403
 20
1313.977094966956
 10
2007.660595254066
 20
1314.040022285225
 10
2008.313081650607
 20
1314.17244339482
 10
2008.914575868729
 20
1314.369269426762
 10
2009.441962822949
 20
1314.622936467026
 10
2009.874975328378
 20
1314.923696233512
 10
2010.196972957271
 20
1315.259990697061
 10
2010.395581521326
 20
1315.618896250037
 10
2010.463168604808
 20
1315.986620353314
 10
2010.450264685848
 20
1316.149312566495
  0
ARC
  5
9DA
330
8BE
100
AcDbEntity
  8
0
  6
Continuous
 62
     8
370
    15
100
AcDbCircle
 10
2005.010784903869
 20
1315.850191908993
 30
0.0
 40
1.503496593888296
100
AcDbArc
 50
183.621605425754
 51
251.1394223766998
  0
LINE
  5
9DB
330
8BE
100
AcDbEntity
  8
0
  6
Continuous
 62
     8
370
    15
100
AcDbLine
 10
2029.522313737308
 20
1238.391973288792
 30
0.0
 11
2027.195862819441
 21
1237.048941761138
 31
0.0
  0
LINE
  5
9DC
330
8BE
100
AcDbEntity
  8
0
  6
Continuous
 62
     8
370
    15
100
AcDbLine
 10
2026.842309428848
 20
1237.661314195036
 30
0.0
 11
2028.795800118775
 21
1238.789040366004
 31
0.0
  0
LINE
  5
9DD
330
8BE
100
AcDbEntity
  8
0
  6
Continuous
 62
     8
370
    15
100
AcDbLine
 10
2025.852359935186
 20
1239.457611091141
 30
0.0
 11
2026.122577604632
 21
1239.6136044313
 31
0.0
  0
LINE
  5
9DE
330
8BE
100
AcDbEntity
  8
0
  6
Continuous
 62
     8
370
    15
100
AcDbLine
 10
2025.979307298805
 20
1239.694177866604
 30
0.0
 11
2025.710938578949
 21
1239.539251902323
 31
0.0
  0
LINE
  5
9DF
330
8BE
100
AcDbEntity
  8
0
  6
Continuous
 62
     8
370
    15
100
AcDbLine
 10
1997.143824619013
 20
1251.214467457567
 30
0.0
 11
1998.629827989534
 21
1252.072318943487
 31
0.0
  0
LINE
  5
9E0
330
8BE
100
AcDbEntity
  8
0
  6
Continuous
 62
     8
370
    15
100
AcDbLine
 10
1994.794809913447
 20
1256.081650273707
 30
0.0
 11
1993.875421683602
 21
1255.550898745982
 31
0.0
  0
LINE
  5
9E1
330
8BE
100
AcDbEntity
  8
0
  6
Continuous
 62
     8
370
    15
100
AcDbLine
 10
2000.636029138825
 20
1251.025707862802
 30
0.0
 11
1996.578139194063
 21
1248.683137860696
 31
0.0
  0
LINE
  5
9E2
330
8BE
100
AcDbEntity
  8
0
  6
Continuous
 62
     8
370
    15
100
AcDbLine
 10
1995.729611056639
 20
1250.152831702053
 30
0.0
 11
1996.699750041826
 21
1250.712881017216
 31
0.0
  0
LINE
  5
9E3
330
8BE
100
AcDbEntity
  8
0
  6
Continuous
 62
     8
370
    15
100
AcDbLine
 10
1989.170077229982
 20
1259.328739335637
 30
0.0
 11
1988.81646637235
 21
1259.124604132666
 31
0.0
  0
LINE
  5
9E4
330
8BE
100
AcDbEntity
  8
0
  6
Continuous
 62
     8
370
    15
100
AcDbLine
 10
1993.388305420858
 20
1251.177822351072
 30
0.0
 11
1993.741858806782
 21
1251.381924376331
 31
0.0
  0
LINE
  5
9E5
330
8BE
100
AcDbEntity
  8
0
  6
Continuous
 62
     8
370
    15
100
AcDbLine
 10
1988.81646637235
 20
1254.225359261351
 30
0.0
 11
1993.413407521575
 21
1256.87911689998
 31
0.0
  0
LINE
  5
9E6
330
8BE
100
AcDbEntity
  8
0
  6
Continuous
 62
     8
370
    15
100
AcDbLine
 10
1994.120571769802
 20
1256.470879669053
 30
0.0
 11
1989.170019762943
 21
1253.612986827453
 31
0.0
  0
ENDBLK
  5
8C0
330
8BE
100
AcDbEntity
  8
0
100
AcDbBlockEnd
  0
ENDSEC
  0
SECTION
  2
ENTITIES
  0
LINE
  5
6EA
330
1F
100
AcDbEntity
  8
0
  6
Continuous
 62
     7
370
    15
100
AcDbLine
 10
2002.093572087319
 20
1335.152673368382
 30
0.0
 11
2002.093572087319
 21
1336.785754992154
 31
0.0
  0
LINE
  5
6EB
330
1F
100
AcDbEntity
  8
0
  6
Continuous
 62
     7
370
    15
100
AcDbLine
 10
1982.436003570332
 20
1331.805665510035
 30
0.0
 11
1996.578139194063
 21
1339.969746628262
 31
0.0
  0
LINE
  5
6EC
330
1F
100
AcDbEntity
  8
0
  6
Continuous
 62
     7
370
    15
100
AcDbLine
 10
2002.093572087319
 20
1336.785754992154
 30
0.0
 11
1996.578139194063
 21
1339.969746628262
 31
0.0
  0
LINE
  5
6F1
330
1F
100
AcDbEntity
  8
0
  6
Continuous
 62
     7
370
    15
100
AcDbLine
 10
2003.649207005929
 20
1332.294926496851
 30
0.0
 11
2000.396239970681
 21
1334.172824394119
 31
0.0
  0
INSERT
  5
7B5
330
1F
100
AcDbEntity
  8
0
100
AcDbBlockReference
  2
1
 10
0.0
 20
0.0
 30
0.0
  0
INSERT
  5
868
330
1F
100
AcDbEntity
  8
0
100
AcDbBlockReference
  2
2
 10
0.0
 20
0.0
 30
0.0
  0
INSERT
  5
8BD
330
1F
100
AcDbEntity
  8
0
100
AcDbBlockReference
  2
3
 10
0.0
 20
0.0
 30
0.0
  0
INSERT
  5
9E7
330
1F
100
AcDbEntity
  8
0
100
AcDbBlockReference
  2
4
 10
0.0
 20
0.0
 30
0.0
  0
ENDSEC
  0
SECTION
  2
OBJECTS
  0
DICTIONARY
  5
C
330
0
100
AcDbDictionary
281
     1
  3
ACAD_COLOR
350
6B
  3
ACAD_GROUP
350
D
  3
ACAD_LAYOUT
350
1A
  3
ACAD_MATERIAL
350
6A
  3
ACAD_MLEADERSTYLE
350
12D
  3
ACAD_MLINESTYLE
350
17
  3
ACAD_PLOTSETTINGS
350
19
  3
ACAD_PLOTSTYLENAME
350
E
  3
ACAD_SCALELIST
350
10C
  3
ACAD_TABLESTYLE
350
7E
  3
ACAD_VISUALSTYLE
350
EF
  3
ACDB_RECOMPOSE_DATA
350
15D
  3
AcDbVariableDictionary
350
5E
  3
DWGPROPS
350
CDE
  0
DICTIONARY
  5
13C
330
10
100
AcDbDictionary
280
     1
281
     1
  3
ADSK_XREC_LAYER_RECONCILED
360
9E8
  0
DICTIONARY
  5
C59
330
723
100
AcDbDictionary
280
     1
281
     1
  0
DICTIONARY
  5
B7B
330
7B6
100
AcDbDictionary
280
     1
281
     1
  0
DICTIONARY
  5
AB0
330
869
100
AcDbDictionary
280
     1
281
     1
  0
DICTIONARY
  5
6B
102
{ACAD_REACTORS
330
C
102
}
330
C
100
AcDbDictionary
281
     1
  0
DICTIONARY
  5
D
102
{ACAD_REACTORS
330
C
102
}
330
C
100
AcDbDictionary
281
     1
  0
DICTIONARY
  5
1A
102
{ACAD_REACTORS
330
C
102
}
330
C
100
AcDbDictionary
281
     1
  3
Layout1
350
D3
  3
Layout2
350
D7
  3
Model
350
22
  0
DICTIONARY
  5
6A
102
{ACAD_REACTORS
330
C
102
}
330
C
100
AcDbDictionary
281
     1
  3
ByBlock
350
ED
  3
ByLayer
350
EC
  3
Global
350
EE
  0
DICTIONARY
  5
12D
102
{ACAD_REACTORS
330
C
102
}
330
C
100
AcDbDictionary
281
     1
  3
Annotative
350
13B
  3
Standard
350
12E
  0
DICTIONARY
  5
17
102
{ACAD_REACTORS
330
C
102
}
330
C
100
AcDbDictionary
281
     1
  3
Standard
350
18
  0
DICTIONARY
  5
19
102
{ACAD_REACTORS
330
C
102
}
330
C
100
AcDbDictionary
281
     1
  0
ACDBDICTIONARYWDFLT
  5
E
102
{ACAD_REACTORS
330
C
102
}
330
C
100
AcDbDictionary
281
     1
  3
Normal
350
F
100
AcDbDictionaryWithDefault
340
F
  0
DICTIONARY
  5
10C
102
{ACAD_REACTORS
330
C
102
}
330
C
100
AcDbDictionary
281
     1
  3
A0
350
10D
  3
A1
350
188
  3
A2
350
189
  3
A3
350
18A
  3
A4
350
18B
  3
A5
350
18C
  3
A6
350
18D
  3
A7
350
18E
  3
A8
350
18F
  3
A9
350
190
  3
B0
350
191
  3
B1
350
192
  3
B2
350
193
  3
B3
350
194
  3
B4
350
195
  3
B5
350
196
  3
B6
350
197
  3
B7
350
198
  3
B8
350
199
  3
B9
350
19A
  3
C0
350
19B
  3
C1
350
19C
  3
C2
350
19D
  3
C3
350
19E
  3
C4
350
19F
  3
C5
350
1A0
  3
C6
350
1A1
  3
C7
350
1A2
  3
C8
350
1A3
  3
C9
350
1A4
  3
D0
350
1A5
  3
D1
350
1A6
  3
D2
350
1A7
  0
DICTIONARY
  5
7E
102
{ACAD_REACTORS
330
C
102
}
330
C
100
AcDbDictionary
281
     1
  3
Standard
350
7F
  0
DICTIONARY
  5
EF
102
{ACAD_REACTORS
330
C
102
}
330
C
100
AcDbDictionary
281
     1
  3
2dWireframe
350
F5
  3
3D Hidden
350
F7
  3
3dWireframe
350
F6
  3
Basic
350
F4
  3
Brighten
350
FB
  3
ColorChange
350
FF
  3
Conceptual
350
F8
  3
Dim
350
FA
  3
Facepattern
350
FE
  3
Flat
350
F0
  3
FlatWithEdges
350
F1
  3
Gouraud
350
F2
  3
GouraudWithEdges
350
F3
  3
Linepattern
350
FD
  3
Realistic
350
F9
  3
Thicken
350
FC
  0
XRECORD
  5
15D
102
{ACAD_REACTORS
330
C
102
}
330
C
100
AcDbXrecord
280
     1
 90
        1
330
7F
  0
DICTIONARY
  5
5E
102
{ACAD_REACTORS
330
C
102
}
330
C
100
AcDbDictionary
281
     1
  3
CANNOSCALE
350
146
  3
CMLEADERSTYLE
350
145
  3
CTABLESTYLE
350
84
  3
DIMASSOC
350
5F
  3
HIDETEXT
350
63
  3
INDEXCTL
350
CDA
  3
LIGHTINGUNITS
350
CD8
  3
MSLTSCALE
350
CD7
  3
PSOLHEIGHT
350
CDC
  3
PSOLWIDTH
350
CDB
  3
SORTENTS
350
CD9
  0
XRECORD
  5
CDE
102
{ACAD_REACTORS
330
C
102
}
330
C
100
AcDbXrecord
280
     1
  1
DWGPROPS COOKIE
  2

  3

  4

  6

  7

  8
orhan kara
  9

300
=
301
=
302
=
303
=
304
=
305
=
306
=
307
=
308
=
309
=
 40
0.0038412384259259
 41
2458472.619737176
 42
2458983.64677257
  1

 90
        0
  0
XRECORD
  5
9E8
102
{ACAD_REACTORS
330
13C
102
}
330
13C
100
AcDbXrecord
280
     1
290
     1
  0
LAYOUT
  5
D3
102
{ACAD_XDICTIONARY
360
CE2
102
}
102
{ACAD_REACTORS
330
1A
102
}
330
1A
100
AcDbPlotSettings
  1

  2
C:\Documents and Settings\basas\Application Data\Autodesk\AutoCAD 2005\R16.1\enu\plotters\Default Windows System Printer.pc3
  4

  6

 40
0.0
 41
0.0
 42
0.0
 43
0.0
 44
0.0
 45
0.0
 46
0.0
 47
0.0
 48
0.0
 49
0.0
140
0.0
141
0.0
142
1.0
143
1.0
 70
   688
 72
     0
 73
     0
 74
     5
  7

 75
    16
147
1.0
148
0.0
149
0.0
100
AcDbLayout
  1
Layout1
 70
     1
 71
     1
 10
0.0
 20
0.0
 11
12.0
 21
9.0
 12
0.0
 22
0.0
 32
0.0
 14
0.0
 24
0.0
 34
0.0
 15
0.0
 25
0.0
 35
0.0
146
0.0
 13
0.0
 23
0.0
 33
0.0
 16
1.0
 26
0.0
 36
0.0
 17
0.0
 27
1.0
 37
0.0
 76
     0
330
D2
  0
LAYOUT
  5
D7
102
{ACAD_XDICTIONARY
360
CE4
102
}
102
{ACAD_REACTORS
330
1A
102
}
330
1A
100
AcDbPlotSettings
  1

  2
C:\Documents and Settings\basas\Application Data\Autodesk\AutoCAD 2005\R16.1\enu\plotters\Default Windows System Printer.pc3
  4

  6

 40
0.0
 41
0.0
 42
0.0
 43
0.0
 44
0.0
 45
0.0
 46
0.0
 47
0.0
 48
0.0
 49
0.0
140
0.0
141
0.0
142
1.0
143
1.0
 70
   688
 72
     0
 73
     0
 74
     5
  7

 75
    16
147
1.0
148
0.0
149
0.0
100
AcDbLayout
  1
Layout2
 70
     1
 71
     2
 10
0.0
 20
0.0
 11
12.0
 21
9.0
 12
0.0
 22
0.0
 32
0.0
 14
0.0
 24
0.0
 34
0.0
 15
0.0
 25
0.0
 35
0.0
146
0.0
 13
0.0
 23
0.0
 33
0.0
 16
1.0
 26
0.0
 36
0.0
 17
0.0
 27
1.0
 37
0.0
 76
     0
330
D6
  0
LAYOUT
  5
22
102
{ACAD_XDICTIONARY
360
CDF
102
}
102
{ACAD_REACTORS
330
1A
102
}
330
1A
100
AcDbPlotSettings
  1

  2
none_device
  4
ISO_A4_(210.00_x_297.00_MM)
  6

 40
7.5
 41
20.0
 42
7.5
 43
20.0
 44
210.0
 45
297.0
 46
11.54999923706054
 47
-13.65000009536743
 48
0.0
 49
0.0
140
0.0
141
0.0
142
1.0
143
8.704084754739808
 70
 11952
 72
     1
 73
     0
 74
     0
  7

 75
     0
147
0.1148885871608098
148
0.0
149
0.0
100
AcDbLayout
  1
Model
 70
     1
 71
     0
 10
0.0
 20
0.0
 11
12.0
 21
9.0
 12
0.0
 22
0.0
 32
0.0
 14
0.0
 24
0.0
 34
0.0
 15
0.0
 25
0.0
 35
0.0
146
0.0
 13
0.0
 23
0.0
 33
0.0
 16
1.0
 26
0.0
 36
0.0
 17
0.0
 27
1.0
 37
0.0
 76
     0
330
1F
331
EA
1001
ACAD_PSEXT
1000
None
1000
None
1000
Not applicable
1000
The layout will not be plotted unless a new plotter configuration name is selected.
1070
     0
  0
MATERIAL
  5
ED
102
{ACAD_XDICTIONARY
360
CE8
102
}
102
{ACAD_REACTORS
330
6A
102
}
330
6A
100
AcDbMaterial
  1
ByBlock
  0
MATERIAL
  5
EC
102
{ACAD_XDICTIONARY
360
CE6
102
}
102
{ACAD_REACTORS
330
6A
102
}
330
6A
100
AcDbMaterial
  1
ByLayer
  0
MATERIAL
  5
EE
102
{ACAD_XDICTIONARY
360
173
102
}
102
{ACAD_REACTORS
330
6A
102
}
330
6A
100
AcDbMaterial
  1
Global
 43
0.0007999999797903
 43
0.0
 43
0.0
 43
0.0
 43
0.0
 43
0.0007999999797903
 43
0.0
 43
0.0
 43
0.0
 43
0.0
 43
1.0
 43
0.0
 43
0.0
 43
0.0
 43
0.0
 43
1.0
 49
0.0007999999797903
 49
0.0
 49
0.0
 49
0.0
 49
0.0
 49
0.0007999999797903
 49
0.0
 49
0.0
 49
0.0
 49
0.0
 49
1.0
 49
0.0
 49
0.0
 49
0.0
 49
0.0
 49
1.0
142
0.0007999999797903
142
0.0
142
0.0
142
0.0
142
0.0
142
0.0007999999797903
142
0.0
142
0.0
142
0.0
142
0.0
142
1.0
142
0.0
142
0.0
142
0.0
142
0.0
142
1.0
144
0.0007999999797903
144
0.0
144
0.0
144
0.0
144
0.0
144
0.0007999999797903
144
0.0
144
0.0
144
0.0
144
0.0
144
1.0
144
0.0
144
0.0
144
0.0
144
0.0
144
1.0
1001
ACAD
1070
    -1
1070
     3
1070
     0
1000

1071
        0
1070
     0
  0
MLEADERSTYLE
  5
13B
102
{ACAD_REACTORS
330
12D
102
}
330
12D
100
AcDbMLeaderStyle
170
     2
171
     1
172
     0
 90
        2
 40
0.0
 41
0.0
173
     1
 91
-1056964608
340
14
 92
       -2
290
     1
 42
2.0
291
     1
 43
8.0
  3
Standard
 44
4.0
300

342
11
174
     1
178
     1
175
     1
176
     0
 93
-1056964608
 45
4.0
292
     0
297
     0
 46
4.0
 94
-1056964608
 47
1.0
 49
1.0
140
1.0
293
     1
141
0.0
294
     1
177
     0
142
1.0
295
     0
296
     1
143
3.75
1001
ACAD_MLEADERVER
1070
     2
  0
MLEADERSTYLE
  5
12E
102
{ACAD_REACTORS
330
12D
102
}
330
12D
100
AcDbMLeaderStyle
170
     2
171
     1
172
     0
 90
        2
 40
0.0
 41
0.0
173
     1
 91
-1056964608
340
14
 92
       -2
290
     1
 42
2.0
291
     1
 43
8.0
  3
Standard
 44
4.0
300

342
11
174
     1
178
     1
175
     1
176
     0
 93
-1056964608
 45
4.0
292
     0
297
     0
 46
4.0
 94
-1056964608
 47
1.0
 49
1.0
140
1.0
293
     1
141
0.0
294
     1
177
     0
142
1.0
295
     0
296
     0
143
3.75
1001
ACAD_MLEADERVER
1070
     2
  0
MLINESTYLE
  5
18
102
{ACAD_REACTORS
330
17
102
}
330
17
100
AcDbMlineStyle
  2
STANDARD
 70
     0
  3

 62
   256
 51
90.0
 52
90.0
 71
     2
 49
0.5
 62
   256
  6
BYLAYER
 49
-0.5
 62
   256
  6
BYLAYER
  0
ACDBPLACEHOLDER
  5
F
102
{ACAD_REACTORS
330
E
102
}
330
E
  0
SCALE
  5
10D
102
{ACAD_REACTORS
330
10C
102
}
330
10C
100
AcDbScale
 70
     0
300
1:1
140
1.0
141
1.0
290
     1
  0
SCALE
  5
188
102
{ACAD_REACTORS
330
10C
102
}
330
10C
100
AcDbScale
 70
     0
300
1:2
140
1.0
141
2.0
290
     0
  0
SCALE
  5
189
102
{ACAD_REACTORS
330
10C
102
}
330
10C
100
AcDbScale
 70
     0
300
1:4
140
1.0
141
4.0
290
     0
  0
SCALE
  5
18A
102
{ACAD_REACTORS
330
10C
102
}
330
10C
100
AcDbScale
 70
     0
300
1:5
140
1.0
141
5.0
290
     0
  0
SCALE
  5
18B
102
{ACAD_REACTORS
330
10C
102
}
330
10C
100
AcDbScale
 70
     0
300
1:8
140
1.0
141
8.0
290
     0
  0
SCALE
  5
18C
102
{ACAD_REACTORS
330
10C
102
}
330
10C
100
AcDbScale
 70
     0
300
1:10
140
1.0
141
10.0
290
     0
  0
SCALE
  5
18D
102
{ACAD_REACTORS
330
10C
102
}
330
10C
100
AcDbScale
 70
     0
300
1:16
140
1.0
141
16.0
290
     0
  0
SCALE
  5
18E
102
{ACAD_REACTORS
330
10C
102
}
330
10C
100
AcDbScale
 70
     0
300
1:20
140
1.0
141
20.0
290
     0
  0
SCALE
  5
18F
102
{ACAD_REACTORS
330
10C
102
}
330
10C
100
AcDbScale
 70
     0
300
1:30
140
1.0
141
30.0
290
     0
  0
SCALE
  5
190
102
{ACAD_REACTORS
330
10C
102
}
330
10C
100
AcDbScale
 70
     0
300
1:40
140
1.0
141
40.0
290
     0
  0
SCALE
  5
191
102
{ACAD_REACTORS
330
10C
102
}
330
10C
100
AcDbScale
 70
     0
300
1:50
140
1.0
141
50.0
290
     0
  0
SCALE
  5
192
102
{ACAD_REACTORS
330
10C
102
}
330
10C
100
AcDbScale
 70
     0
300
1:100
140
1.0
141
100.0
290
     0
  0
SCALE
  5
193
102
{ACAD_REACTORS
330
10C
102
}
330
10C
100
AcDbScale
 70
     0
300
2:1
140
2.0
141
1.0
290
     0
  0
SCALE
  5
194
102
{ACAD_REACTORS
330
10C
102
}
330
10C
100
AcDbScale
 70
     0
300
4:1
140
4.0
141
1.0
290
     0
  0
SCALE
  5
195
102
{ACAD_REACTORS
330
10C
102
}
330
10C
100
AcDbScale
 70
     0
300
8:1
140
8.0
141
1.0
290
     0
  0
SCALE
  5
196
102
{ACAD_REACTORS
330
10C
102
}
330
10C
100
AcDbScale
 70
     0
300
10:1
140
10.0
141
1.0
290
     0
  0
SCALE
  5
197
102
{ACAD_REACTORS
330
10C
102
}
330
10C
100
AcDbScale
 70
     0
300
100:1
140
100.0
141
1.0
290
     0
  0
SCALE
  5
198
102
{ACAD_REACTORS
330
10C
102
}
330
10C
100
AcDbScale
 70
     0
300
1/128" = 1'-0"
140
0.0078125
141
12.0
290
     0
  0
SCALE
  5
199
102
{ACAD_REACTORS
330
10C
102
}
330
10C
100
AcDbScale
 70
     0
300
1/64" = 1'-0"
140
0.015625
141
12.0
290
     0
  0
SCALE
  5
19A
102
{ACAD_REACTORS
330
10C
102
}
330
10C
100
AcDbScale
 70
     0
300
1/32" = 1'-0"
140
0.03125
141
12.0
290
     0
  0
SCALE
  5
19B
102
{ACAD_REACTORS
330
10C
102
}
330
10C
100
AcDbScale
 70
     0
300
1/16" = 1'-0"
140
0.0625
141
12.0
290
     0
  0
SCALE
  5
19C
102
{ACAD_REACTORS
330
10C
102
}
330
10C
100
AcDbScale
 70
     0
300
3/32" = 1'-0"
140
0.09375
141
12.0
290
     0
  0
SCALE
  5
19D
102
{ACAD_REACTORS
330
10C
102
}
330
10C
100
AcDbScale
 70
     0
300
1/8" = 1'-0"
140
0.125
141
12.0
290
     0
  0
SCALE
  5
19E
102
{ACAD_REACTORS
330
10C
102
}
330
10C
100
AcDbScale
 70
     0
300
3/16" = 1'-0"
140
0.1875
141
12.0
290
     0
  0
SCALE
  5
19F
102
{ACAD_REACTORS
330
10C
102
}
330
10C
100
AcDbScale
 70
     0
300
1/4" = 1'-0"
140
0.25
141
12.0
290
     0
  0
SCALE
  5
1A0
102
{ACAD_REACTORS
330
10C
102
}
330
10C
100
AcDbScale
 70
     0
300
3/8" = 1'-0"
140
0.375
141
12.0
290
     0
  0
SCALE
  5
1A1
102
{ACAD_REACTORS
330
10C
102
}
330
10C
100
AcDbScale
 70
     0
300
1/2" = 1'-0"
140
0.5
141
12.0
290
     0
  0
SCALE
  5
1A2
102
{ACAD_REACTORS
330
10C
102
}
330
10C
100
AcDbScale
 70
     0
300
3/4" = 1'-0"
140
0.75
141
12.0
290
     0
  0
SCALE
  5
1A3
102
{ACAD_REACTORS
330
10C
102
}
330
10C
100
AcDbScale
 70
     0
300
1" = 1'-0"
140
1.0
141
12.0
290
     0
  0
SCALE
  5
1A4
102
{ACAD_REACTORS
330
10C
102
}
330
10C
100
AcDbScale
 70
     0
300
1-1/2" = 1'-0"
140
1.5
141
12.0
290
     0
  0
SCALE
  5
1A5
102
{ACAD_REACTORS
330
10C
102
}
330
10C
100
AcDbScale
 70
     0
300
3" = 1'-0"
140
3.0
141
12.0
290
     0
  0
SCALE
  5
1A6
102
{ACAD_REACTORS
330
10C
102
}
330
10C
100
AcDbScale
 70
     0
300
6" = 1'-0"
140
6.0
141
12.0
290
     0
  0
SCALE
  5
1A7
102
{ACAD_REACTORS
330
10C
102
}
330
10C
100
AcDbScale
 70
     0
300
1'-0" = 1'-0"
140
12.0
141
12.0
290
     0
  0
TABLESTYLE
  5
7F
102
{ACAD_XDICTIONARY
360
162
102
}
102
{ACAD_REACTORS
330
7E
102
}
330
7E
100
AcDbTableStyle
  3
Standard
 70
     0
 71
     0
 40
1.5
 41
1.5
280
     0
281
     0
  7
Standard
140
4.5
170
     2
 62
     0
 63
     7
283
     0
274
    -2
284
     1
 64
     0
275
    -2
285
     1
 65
     0
276
    -2
286
     1
 66
     0
277
    -2
287
     1
 67
     0
278
    -2
288
     1
 68
     0
279
    -2
289
     1
 69
     0
  7
Standard
140
6.0
170
     5
 62
     0
 63
     7
283
     0
274
    -2
284
     1
 64
     0
275
    -2
285
     1
 65
     0
276
    -2
286
     1
 66
     0
277
    -2
287
     1
 67
     0
278
    -2
288
     1
 68
     0
279
    -2
289
     1
 69
     0
  7
Standard
140
4.5
170
     5
 62
     0
 63
     7
283
     0
274
    -2
284
     1
 64
     0
275
    -2
285
     1
 65
     0
276
    -2
286
     1
 66
     0
277
    -2
287
     1
 67
     0
278
    -2
288
     1
 68
     0
279
    -2
289
     1
 69
     0
  0
VISUALSTYLE
  5
F5
102
{ACAD_REACTORS
330
EF
102
}
330
EF
100
AcDbVisualStyle
  2
2dWireframe
 70
     4
 71
     0
 72
     2
 73
     1
 90
        0
 40
-0.6
 41
-30.0
 62
     5
 63
     7
 74
     1
 91
        4
 64
     7
 65
   257
 75
     1
175
     1
 42
1.0
 92
        0
 66
   257
 43
1.0
 76
     1
 77
     6
 78
     2
 67
     7
 79
     5
170
     0
171
     0
290
     0
174
     0
 93
        1
 44
0.0
173
     0
291
     0
 45
0.0
1001
ACAD
1000
AcDbSavedByObjectVersion
1070
     0
  0
VISUALSTYLE
  5
F7
102
{ACAD_REACTORS
330
EF
102
}
330
EF
100
AcDbVisualStyle
  2
3D Hidden
 70
     6
 71
     1
 72
     2
 73
     2
 90
        0
 40
-0.6
 41
-30.0
 62
     5
 63
     7
 74
     2
 91
        2
 64
     7
 65
   257
 75
     2
175
     1
 42
40.0
 92
        0
 66
   257
 43
1.0
 76
     1
 77
     6
 78
     2
 67
     7
 79
     3
170
     0
171
     0
290
     0
174
     0
 93
        1
 44
0.0
173
     0
291
     0
 45
0.0
1001
ACAD
1000
AcDbSavedByObjectVersion
1070
     0
  0
VISUALSTYLE
  5
F6
102
{ACAD_REACTORS
330
EF
102
}
330
EF
100
AcDbVisualStyle
  2
3dWireframe
 70
     5
 71
     0
 72
     2
 73
     1
 90
        0
 40
-0.6
 41
-30.0
 62
     5
 63
     7
 74
     1
 91
        4
 64
     7
 65
   257
 75
     1
175
     1
 42
1.0
 92
        0
 66
   257
 43
1.0
 76
     1
 77
     6
 78
     2
 67
     7
 79
     5
170
     0
171
     0
290
     0
174
     0
 93
        1
 44
0.0
173
     0
291
     0
 45
0.0
1001
ACAD
1000
AcDbSavedByObjectVersion
1070
     0
  0
VISUALSTYLE
  5
F4
102
{ACAD_REACTORS
330
EF
102
}
330
EF
100
AcDbVisualStyle
  2
Basic
 70
     7
 71
     1
 72
     0
 73
     1
 90
        0
 40
-0.6
 41
-30.0
 62
     5
 63
     7
 74
     0
 91
        4
 64
     7
 65
   257
 75
     1
175
     1
 42
1.0
 92
        8
 66
     7
 43
1.0
 76
     1
 77
     6
 78
     2
 67
     7
 79
     5
170
     0
171
     0
290
     0
174
     0
 93
        1
 44
0.0
173
     0
291
     1
 45
0.0
1001
ACAD
1000
AcDbSavedByObjectVersion
1070
     0
  0
VISUALSTYLE
  5
FB
102
{ACAD_REACTORS
330
EF
102
}
330
EF
100
AcDbVisualStyle
  2
Brighten
 70
    12
 71
     2
 72
     2
 73
     1
 90
        0
 40
-0.6
 41
-30.0
 62
     5
 63
     7
 74
     1
 91
        4
 64
     7
 65
   257
 75
     1
175
     1
 42
1.0
 92
        8
 66
     7
 43
1.0
 76
     1
 77
     6
 78
     2
 67
     7
 79
     5
170
     0
171
     0
290
     0
174
     0
 93
        1
 44
50.0
173
     0
291
     1
 45
0.0
1001
ACAD
1000
AcDbSavedByObjectVersion
1070
     0
  0
VISUALSTYLE
  5
FF
102
{ACAD_REACTORS
330
EF
102
}
330
EF
100
AcDbVisualStyle
  2
ColorChange
 70
    16
 71
     2
 72
     2
 73
     3
 90
        0
 40
-0.6
 41
-30.0
 62
     5
 63
     8
 74
     1
 91
        4
 64
     7
 65
   257
 75
     1
175
     1
 42
1.0
 92
        8
 66
     8
 43
1.0
 76
     1
 77
     6
 78
     2
 67
     7
 79
     5
170
     0
171
     0
290
     0
174
     0
 93
        1
 44
0.0
173
     0
291
     1
 45
0.0
1001
ACAD
1000
AcDbSavedByObjectVersion
1070
     0
  0
VISUALSTYLE
  5
F8
102
{ACAD_REACTORS
330
EF
102
}
330
EF
100
AcDbVisualStyle
  2
Conceptual
 70
     9
 71
     3
 72
     2
 73
     1
 90
        0
 40
-0.6
 41
-30.0
 62
     5
 63
     7
 74
     2
 91
        2
 64
     7
 65
   257
 75
     1
175
     1
 42
40.0
 92
        8
 66
     7
 43
1.0
 76
     1
 77
     6
 78
     2
 67
     7
 79
     3
170
     0
171
     0
290
     0
174
     0
 93
        1
 44
0.0
173
     0
291
     0
 45
0.0
1001
ACAD
1000
AcDbSavedByObjectVersion
1070
     0
  0
VISUALSTYLE
  5
FA
102
{ACAD_REACTORS
330
EF
102
}
330
EF
100
AcDbVisualStyle
  2
Dim
 70
    11
 71
     2
 72
     2
 73
     1
 90
        0
 40
-0.6
 41
-30.0
 62
     5
 63
     7
 74
     1
 91
        4
 64
     7
 65
   257
 75
     1
175
     1
 42
1.0
 92
        8
 66
     7
 43
1.0
 76
     1
 77
     6
 78
     2
 67
     7
 79
     5
170
     0
171
     0
290
     0
174
     0
 93
        1
 44
-50.0
173
     0
291
     1
 45
0.0
1001
ACAD
1000
AcDbSavedByObjectVersion
1070
     0
  0
VISUALSTYLE
  5
FE
102
{ACAD_REACTORS
330
EF
102
}
330
EF
100
AcDbVisualStyle
  2
Facepattern
 70
    15
 71
     2
 72
     2
 73
     1
 90
        0
 40
-0.6
 41
-30.0
 62
     5
 63
     7
 74
     1
 91
        4
 64
     7
 65
   257
 75
     1
175
     1
 42
1.0
 92
        8
 66
     7
 43
1.0
 76
     1
 77
     6
 78
     2
 67
     7
 79
     5
170
     0
171
     0
290
     0
174
     0
 93
        1
 44
0.0
173
     0
291
     1
 45
0.0
1001
ACAD
1000
AcDbSavedByObjectVersion
1070
     0
  0
VISUALSTYLE
  5
F0
102
{ACAD_REACTORS
330
EF
102
}
330
EF
100
AcDbVisualStyle
  2
Flat
 70
     0
 71
     2
 72
     1
 73
     1
 90
        2
 40
-0.6
 41
30.0
 62
     5
 63
     7
 74
     0
 91
        4
 64
     7
 65
   257
 75
     1
175
     1
 42
1.0
 92
        8
 66
     7
 43
1.0
 76
     1
 77
     6
 78
     2
 67
     7
 79
     5
170
     0
171
     0
290
     0
174
     0
 93
        1
 44
0.0
173
     0
291
     1
 45
0.0
1001
ACAD
1000
AcDbSavedByObjectVersion
1070
     0
  0
VISUALSTYLE
  5
F1
102
{ACAD_REACTORS
330
EF
102
}
330
EF
100
AcDbVisualStyle
  2
FlatWithEdges
 70
     1
 71
     2
 72
     1
 73
     1
 90
        2
 40
-0.6
 41
30.0
 62
     5
 63
     7
 74
     1
 91
        4
 64
     7
 65
   257
 75
     1
175
     1
 42
1.0
 92
        0
 66
   257
 43
1.0
 76
     1
 77
     6
 78
     2
 67
     7
 79
     5
170
     0
171
     0
290
     0
174
     0
 93
        1
 44
0.0
173
     0
291
     1
 45
0.0
1001
ACAD
1000
AcDbSavedByObjectVersion
1070
     0
  0
VISUALSTYLE
  5
F2
102
{ACAD_REACTORS
330
EF
102
}
330
EF
100
AcDbVisualStyle
  2
Gouraud
 70
     2
 71
     2
 72
     2
 73
     1
 90
        2
 40
-0.6
 41
30.0
 62
     5
 63
     7
 74
     0
 91
        4
 64
     7
 65
   257
 75
     1
175
     1
 42
1.0
 92
        0
 66
     7
 43
1.0
 76
     1
 77
     6
 78
     2
 67
     7
 79
     5
170
     0
171
     0
290
     0
174
     0
 93
        1
 44
0.0
173
     0
291
     1
 45
0.0
1001
ACAD
1000
AcDbSavedByObjectVersion
1070
     0
  0
VISUALSTYLE
  5
F3
102
{ACAD_REACTORS
330
EF
102
}
330
EF
100
AcDbVisualStyle
  2
GouraudWithEdges
 70
     3
 71
     2
 72
     2
 73
     1
 90
        2
 40
-0.6
 41
30.0
 62
     5
 63
     7
 74
     1
 91
        4
 64
     7
 65
   257
 75
     1
175
     1
 42
1.0
 92
        0
 66
   257
 43
1.0
 76
     1
 77
     6
 78
     2
 67
     7
 79
     5
170
     0
171
     0
290
     0
174
     0
 93
        1
 44
0.0
173
     0
291
     1
 45
0.0
1001
ACAD
1000
AcDbSavedByObjectVersion
1070
     0
  0
VISUALSTYLE
  5
FD
102
{ACAD_REACTORS
330
EF
102
}
330
EF
100
AcDbVisualStyle
  2
Linepattern
 70
    14
 71
     2
 72
     2
 73
     1
 90
        0
 40
-0.6
 41
-30.0
 62
     5
 63
     7
 74
     1
 91
        4
 64
     7
 65
   257
 75
     7
175
     7
 42
1.0
 92
        8
 66
     7
 43
1.0
 76
     1
 77
     6
 78
     2
 67
     7
 79
     5
170
     0
171
     0
290
     0
174
     0
 93
        1
 44
0.0
173
     0
291
     1
 45
0.0
1001
ACAD
1000
AcDbSavedByObjectVersion
1070
     0
  0
VISUALSTYLE
  5
F9
102
{ACAD_REACTORS
330
EF
102
}
330
EF
100
AcDbVisualStyle
  2
Realistic
 70
     8
 71
     2
 72
     2
 73
     1
 90
        0
 40
-0.6
 41
-30.0
 62
     5
 63
     7
 74
     1
 91
        0
 64
     7
 65
   257
 75
     1
175
     1
 42
1.0
 92
        8
 66
     8
 43
1.0
 76
     1
 77
     6
 78
     2
 67
     7
 79
     5
170
     0
171
     0
290
     0
174
     0
 93
       13
 44
0.0
173
     0
291
     0
 45
0.0
1001
ACAD
1000
AcDbSavedByObjectVersion
1070
     0
  0
VISUALSTYLE
  5
FC
102
{ACAD_REACTORS
330
EF
102
}
330
EF
100
AcDbVisualStyle
  2
Thicken
 70
    13
 71
     2
 72
     2
 73
     1
 90
        0
 40
-0.6
 41
-30.0
 62
     5
 63
     7
 74
     1
 91
        4
 64
     7
 65
   257
 75
     1
175
     1
 42
1.0
 92
       12
 66
     7
 43
1.0
 76
     1
 77
     6
 78
     2
 67
     7
 79
     5
170
     0
171
     0
290
     0
174
     0
 93
        1
 44
0.0
173
     0
291
     1
 45
0.0
1001
ACAD
1000
AcDbSavedByObjectVersion
1070
     0
  0
DICTIONARYVAR
  5
146
102
{ACAD_REACTORS
330
5E
102
}
330
5E
100
DictionaryVariables
280
     0
  1
1:1
  0
DICTIONARYVAR
  5
145
102
{ACAD_REACTORS
330
5E
102
}
330
5E
100
DictionaryVariables
280
     0
  1
STANDARD
  0
DICTIONARYVAR
  5
84
102
{ACAD_REACTORS
330
5E
102
}
330
5E
100
DictionaryVariables
280
     0
  1
STANDARD
  0
DICTIONARYVAR
  5
5F
102
{ACAD_REACTORS
330
5E
102
}
330
5E
100
DictionaryVariables
280
     0
  1
2
  0
DICTIONARYVAR
  5
63
102
{ACAD_REACTORS
330
5E
102
}
330
5E
100
DictionaryVariables
280
     0
  1
1
  0
DICTIONARYVAR
  5
CDA
102
{ACAD_REACTORS
330
5E
102
}
330
5E
100
DictionaryVariables
280
     0
  1
0
  0
DICTIONARYVAR
  5
CD8
102
{ACAD_REACTORS
330
5E
102
}
330
5E
100
DictionaryVariables
280
     0
  1
2
  0
DICTIONARYVAR
  5
CD7
102
{ACAD_REACTORS
330
5E
102
}
330
5E
100
DictionaryVariables
280
     0
  1
1
  0
DICTIONARYVAR
  5
CDC
102
{ACAD_REACTORS
330
5E
102
}
330
5E
100
DictionaryVariables
280
     0
  1
80.000000
  0
DICTIONARYVAR
  5
CDB
102
{ACAD_REACTORS
330
5E
102
}
330
5E
100
DictionaryVariables
280
     0
  1
5.000000
  0
DICTIONARYVAR
  5
CD9
102
{ACAD_REACTORS
330
5E
102
}
330
5E
100
DictionaryVariables
280
     0
  1
127
  0
DICTIONARY
  5
CE2
330
D3
100
AcDbDictionary
280
     1
281
     1
  3
ACAD_XREC_ROUNDTRIP
360
CE3
  0
DICTIONARY
  5
CE4
330
D7
100
AcDbDictionary
280
     1
281
     1
  3
ACAD_XREC_ROUNDTRIP
360
CE5
  0
DICTIONARY
  5
CDF
330
22
100
AcDbDictionary
280
     1
281
     1
  3
ACAD_XREC_ROUNDTRIP
360
CE0
  0
DICTIONARY
  5
CE8
330
ED
100
AcDbDictionary
280
     1
281
     1
  3
ACAD_XREC_ROUNDTRIP
360
CE9
  0
DICTIONARY
  5
CE6
330
EC
100
AcDbDictionary
280
     1
281
     1
  3
ACAD_XREC_ROUNDTRIP
360
CE7
  0
DICTIONARY
  5
173
330
EE
100
AcDbDictionary
280
     1
281
     1
  3
ACAD_XREC_ROUNDTRIP
360
CEA
  3
BUMPTILE
360
175
  3
DIFFUSETILE
360
174
  3
OPACITYTILE
360
176
  3
REFLECTIONTILE
360
177
  0
DICTIONARY
  5
162
330
7F
100
AcDbDictionary
280
     1
281
     1
  3
ACAD_ROUNDTRIP_2008_TABLESTYLE_CELLSTYLEMAP
360
CDD
  3
ACAD_XREC_ROUNDTRIP
360
CE1
  0
XRECORD
  5
CE3
102
{ACAD_REACTORS
330
CE2
102
}
330
CE2
100
AcDbXrecord
280
     1
102
SHADEPLOT
 70
     0
102
SHADEPLOTRESLEVEL
 70
     2
102
SHADEPLOTCUSTOMDPI
 70
   300
  0
XRECORD
  5
CE5
102
{ACAD_REACTORS
330
CE4
102
}
330
CE4
100
AcDbXrecord
280
     1
102
SHADEPLOT
 70
     0
102
SHADEPLOTRESLEVEL
 70
     2
102
SHADEPLOTCUSTOMDPI
 70
   300
  0
XRECORD
  5
CE0
102
{ACAD_REACTORS
330
CDF
102
}
330
CDF
100
AcDbXrecord
280
     1
102
SHADEPLOT
 70
     0
102
SHADEPLOTRESLEVEL
 70
     2
102
SHADEPLOTCUSTOMDPI
 70
   300
  0
XRECORD
  5
CE9
102
{ACAD_REACTORS
330
CE8
102
}
330
CE8
100
AcDbXrecord
280
     1
102
MATERIAL
148
0.0
149
0.0
149
0.0
 93
        0
 94
       63
282
     0
 72
     1
 77
     1
171
     1
175
     1
179
     1
273
     0
  0
XRECORD
  5
CE7
102
{ACAD_REACTORS
330
CE6
102
}
330
CE6
100
AcDbXrecord
280
     1
102
MATERIAL
148
0.0
149
0.0
149
0.0
 93
        0
 94
       63
282
     0
 72
     1
 77
     1
171
     1
175
     1
179
     1
273
     0
  0
XRECORD
  5
CEA
102
{ACAD_REACTORS
330
173
102
}
330
173
100
AcDbXrecord
280
     1
102
MATERIAL
148
0.0
149
0.0
149
0.0
 93
        0
 94
       63
282
     0
 72
     1
 77
     1
171
     1
175
     1
179
     1
273
     0
  0
XRECORD
  5
175
102
{ACAD_REACTORS
330
173
102
}
330
173
100
AcDbXrecord
280
     1
270
     1
271
     1
  0
XRECORD
  5
174
102
{ACAD_REACTORS
330
173
102
}
330
173
100
AcDbXrecord
280
     1
270
     1
271
     1
  0
XRECORD
  5
176
102
{ACAD_REACTORS
330
173
102
}
330
173
100
AcDbXrecord
280
     1
270
     1
271
     1
  0
XRECORD
  5
177
102
{ACAD_REACTORS
330
173
102
}
330
173
100
AcDbXrecord
280
     1
270
     1
271
     1
  0
CELLSTYLEMAP
  5
CDD
102
{ACAD_REACTORS
330
162
102
}
330
162
100
AcDbCellStyleMap
 90
        3
300
CELLSTYLE
  1
TABLEFORMAT_BEGIN
 90
        5
170
     1
 91
        0
 92
    32768
 62
   257
 93
        1
300
CONTENTFORMAT
  1
CONTENTFORMAT_BEGIN
 90
        0
 91
        0
 92
      512
 93
        0
300

 40
0.0
140
1.0
 94
        5
 62
     0
340
11
144
6.0
309
CONTENTFORMAT_END
171
     1
301
MARGIN
  1
CELLMARGIN_BEGIN
 40
1.5
 40
1.5
 40
1.5
 40
1.5
 40
4.5
 40
4.5
309
CELLMARGIN_END
 94
        6
 95
        1
302
GRIDFORMAT
  1
GRIDFORMAT_BEGIN
 90
        0
 91
        1
 62
     0
 92
       -2
340
14
 93
        0
 40
1.125
309
GRIDFORMAT_END
 95
        2
302
GRIDFORMAT
  1
GRIDFORMAT_BEGIN
 90
        0
 91
        1
 62
     0
 92
       -2
340
14
 93
        0
 40
1.125
309
GRIDFORMAT_END
 95
        4
302
GRIDFORMAT
  1
GRIDFORMAT_BEGIN
 90
        0
 91
        1
 62
     0
 92
       -2
340
14
 93
        0
 40
1.125
309
GRIDFORMAT_END
 95
        8
302
GRIDFORMAT
  1
GRIDFORMAT_BEGIN
 90
        0
 91
        1
 62
     0
 92
       -2
340
14
 93
        0
 40
1.125
309
GRIDFORMAT_END
 95
       16
302
GRIDFORMAT
  1
GRIDFORMAT_BEGIN
 90
        0
 91
        1
 62
     0
 92
       -2
340
14
 93
        0
 40
1.125
309
GRIDFORMAT_END
 95
       32
302
GRIDFORMAT
  1
GRIDFORMAT_BEGIN
 90
        0
 91
        1
 62
     0
 92
       -2
340
14
 93
        0
 40
1.125
309
GRIDFORMAT_END
309
TABLEFORMAT_END
  1
CELLSTYLE_BEGIN
 90
        1
 91
        1
300
_TITLE
309
CELLSTYLE_END
300
CELLSTYLE
  1
TABLEFORMAT_BEGIN
 90
        5
170
     1
 91
        0
 92
        0
 62
   257
 93
        1
300
CONTENTFORMAT
  1
CONTENTFORMAT_BEGIN
 90
        0
 91
        0
 92
      512
 93
        0
300

 40
0.0
140
1.0
 94
        5
 62
     0
340
11
144
4.5
309
CONTENTFORMAT_END
171
     1
301
MARGIN
  1
CELLMARGIN_BEGIN
 40
1.5
 40
1.5
 40
1.5
 40
1.5
 40
4.5
 40
4.5
309
CELLMARGIN_END
 94
        6
 95
        1
302
GRIDFORMAT
  1
GRIDFORMAT_BEGIN
 90
        0
 91
        1
 62
     0
 92
       -2
340
14
 93
        0
 40
1.125
309
GRIDFORMAT_END
 95
        2
302
GRIDFORMAT
  1
GRIDFORMAT_BEGIN
 90
        0
 91
        1
 62
     0
 92
       -2
340
14
 93
        0
 40
1.125
309
GRIDFORMAT_END
 95
        4
302
GRIDFORMAT
  1
GRIDFORMAT_BEGIN
 90
        0
 91
        1
 62
     0
 92
       -2
340
14
 93
        0
 40
1.125
309
GRIDFORMAT_END
 95
        8
302
GRIDFORMAT
  1
GRIDFORMAT_BEGIN
 90
        0
 91
        1
 62
     0
 92
       -2
340
14
 93
        0
 40
1.125
309
GRIDFORMAT_END
 95
       16
302
GRIDFORMAT
  1
GRIDFORMAT_BEGIN
 90
        0
 91
        1
 62
     0
 92
       -2
340
14
 93
        0
 40
1.125
309
GRIDFORMAT_END
 95
       32
302
GRIDFORMAT
  1
GRIDFORMAT_BEGIN
 90
        0
 91
        1
 62
     0
 92
       -2
340
14
 93
        0
 40
1.125
309
GRIDFORMAT_END
309
TABLEFORMAT_END
  1
CELLSTYLE_BEGIN
 90
        2
 91
        1
300
_HEADER
309
CELLSTYLE_END
300
CELLSTYLE
  1
TABLEFORMAT_BEGIN
 90
        5
170
     1
 91
        0
 92
        0
 62
   257
 93
        1
300
CONTENTFORMAT
  1
CONTENTFORMAT_BEGIN
 90
        0
 91
        0
 92
      512
 93
        0
300

 40
0.0
140
1.0
 94
        2
 62
     0
340
11
144
4.5
309
CONTENTFORMAT_END
171
     1
301
MARGIN
  1
CELLMARGIN_BEGIN
 40
1.5
 40
1.5
 40
1.5
 40
1.5
 40
4.5
 40
4.5
309
CELLMARGIN_END
 94
        6
 95
        1
302
GRIDFORMAT
  1
GRIDFORMAT_BEGIN
 90
        0
 91
        1
 62
     0
 92
       -2
340
14
 93
        0
 40
1.125
309
GRIDFORMAT_END
 95
        2
302
GRIDFORMAT
  1
GRIDFORMAT_BEGIN
 90
        0
 91
        1
 62
     0
 92
       -2
340
14
 93
        0
 40
1.125
309
GRIDFORMAT_END
 95
        4
302
GRIDFORMAT
  1
GRIDFORMAT_BEGIN
 90
        0
 91
        1
 62
     0
 92
       -2
340
14
 93
        0
 40
1.125
309
GRIDFORMAT_END
 95
        8
302
GRIDFORMAT
  1
GRIDFORMAT_BEGIN
 90
        0
 91
        1
 62
     0
 92
       -2
340
14
 93
        0
 40
1.125
309
GRIDFORMAT_END
 95
       16
302
GRIDFORMAT
  1
GRIDFORMAT_BEGIN
 90
        0
 91
        1
 62
     0
 92
       -2
340
14
 93
        0
 40
1.125
309
GRIDFORMAT_END
 95
       32
302
GRIDFORMAT
  1
GRIDFORMAT_BEGIN
 90
        0
 91
        1
 62
     0
 92
       -2
340
14
 93
        0
 40
1.125
309
GRIDFORMAT_END
309
TABLEFORMAT_END
  1
CELLSTYLE_BEGIN
 90
        3
 91
        2
300
_DATA
309
CELLSTYLE_END
  0
XRECORD
  5
CE1
102
{ACAD_REACTORS
330
162
102
}
330
162
100
AcDbXrecord
280
     1
102
ACAD_ROUNDTRIP_PRE2007_TABLESTYLE
 90
      512
 91
        0
  1

 92
      512
 93
        0
  2

 94
      512
 95
        0
  3

  0
ENDSEC
  0
EOF
